Song name
# A B C D E F G H I J K L M N O P Q R S T U V W X Y Z

Misc Unsigned Bands - Phthisis - Clinical Dreams tab

Gtr1                                                                    6xs
e|----6-----6----------6-----6----------6-----6----------------------------|
B|-----6-----6----------6-----6----------6-----6---------------------------|
G|------9-----9----------9-----9----------9-----9--------------------------|
D|-------8-----8----------8-----8----------8-----8----5--------------------|
A|--------6-----6----------6-----6----------6-----6---3-5-5-5-9------------|
E|000--------------000--------------000-----------------2-3-2-6------------|
gtr2                                                                   6xs
e|----6-----6----------6-----6----------6-----6----------------------------|
B|-----6-----6----------6-----6----------6-----6---------------------------|
G|------9-----9----------9-----9----------9-----9--------------------------|
D|-------8-----8----------8-----8----------8-----8-------------------------|
A|--------6-----6----------6-----6----------6-----6---3-1-1-1-4------------|
E|000--------------000--------------000---------------1-2-3-2-6------------
GTr1
e|-----0---5----------0---5----------0---5----------0---5------------------|
B|------4---4----------4---4----------4---4----------4---4-----------------|
G|---0---0---0--0---0---0---0--0---0---0---0--0---0---0---0--0-------------|
D|--3----------3---3----------3---3----------3---3----------3--------------|
A|-0----------4---0----------4---0----------4---0----------4---------------|
E|-------------------------------------------------------------------------|
Gtr2
e|-----------------------------------0---5----------0---5------------------|
B|------------------------------------4---4----------4---4-----------------|
G|---------------------------------0---0---0--0---0---0---0--0-------------|
D|--------------------------------3----------3---3----------3--------------|
A|-------------------------------0----------4---0----------4---------------|
E|-------------------------------------------------------------------------|
Gtr1
e|-----0---5----------0---5----------0---5----------0---5------------------|
B|------4---4----------4---4----------4---4----------4---4-----------------|
G|---0---0---0--0---0---0---0--0---0---0---0--0---0---0---0--0-------------|
D|--3----------3---3----------3---3----------3---3----------3--------------|
A|-0----------4---0----------4---0----------4---0----------4---------------|
E|-------------------------------------------------------------------------|
Gtr2
e|-----0---5----------0---5----------0---5----------0---5------------------|
B|------4---4----------4---4----------4---4----------4---4-----------------|
G|---0---0---0--0---0---0---0--0---0---0---0--0---0---0---0--0-------------|
D|--3----------3---3----------3---3----------3---3----------3--------------|
A|-0----------4---0----------4---0----------4---0----------4---------------|
E|-------------------------------------------------------------------------|
Gtr1                           2xs
e|-----0---5----------0---5-------|
B|------4---4----------4---4------|
G|---0---0---0--0---0---0---0--0--|
D|--3----------3---3----------3---|chorus
A|-0----------4---0----------4----|
E|--------------------------------|
Gtr2                           2xs
e|-12----------------------7-12*--|
B|---------11-------8-54-------12*|
G|-----89---------45-----50-------|chorus
D|-------10-----------------------|
A|--------------------------------|
E|--------------------------------|
Gtr1
e|-----0---5----------0---5----------0---5----------0---5------------------|
B|------4---4----------4---4----------4---4----------4---4-----------------|
G|---0---0---0--0---0---0---0--0---0---0---0--0---0---0---0--0-------------|
D|--3----------3---3----------3---3----------3---3----------3--------------|
A|-0----------4---0----------4---0----------4---0----------4---------------|
E|-------------------------------------------------------------------------|
Gtr2
e|-----0---5----------0---5----------0---5----------0---5------------------|
B|------4---4----------4---4----------4---4----------4---4-----------------|
G|---0---0---0--0---0---0---0--0---0---0---0--0---0---0---0--0-------------|
D|--3----------3---3----------3---3----------3---3----------3--------------|
A|-0----------4---0----------4---0----------4---0----------4---------------|
E|-------------------------------------------------------------------------|
Gtr1                           2xs
e|-----0---5----------0---5-------|
B|------4---4----------4---4------|
G|---0---0---0--0---0---0---0--0--|chorus
D|--3----------3---3----------3---|
A|-0----------4---0----------4----|
E|--------------------------------|
Gtr2                           2xs
e|-12----------------------7-12*--|
B|---------11-------8-54-------12*|
G|-----89---------45-----50-------|chorus
D|-------10-----------------------|
A|--------------------------------|
E|--------------------------------|

Gtr 1&2                  1x
e|-------------------------|
B|-------------------------|
G|---/11---/11---/11---/11-|
D|---/10---/10---/10---/10-|
A|-0-/9--0-/9--0-/9--0-/9--|
E|-0-----0-----0-----0-----|

Gtr 1&2          8xs
e|------------------|
B|------------------|
G|---4---3-6--------|
D|-3-2-5-1-4-5------|
A|-1---3-----3-6-0--|
E|-------------4-0--|
Gtr1
e|-----------------------------------------------|
B|-----------------------------------------------|
G|4-4-4-4--11-11-11-1112-12-12-12-12-12-12-12----|
D|-----------------------------------------------
A|2-2-2-2--9--9--9--9-10-10-10-10-10-10-10-10----|
E|-----------------------------------------------|

Gtr2
e|-----*--------*---------*---------*------------|
B|----5-5------5--5------5--5------5--5----------|
G|---3---3----3----3----3----3----3----3---------|
D|--4-----4--4------4--4------4--4------4--------|
A|-0--------0---------0---------0----------------|
E|-----------------------------------------------|

Gtr1                                     2xs
e|------------------------------------------|
B|------------------------------------------|
G|------4-----3-6------------4-----3-6------|
D|---3--2--5--1-4-5-------3--2--5--1-4-5----|
A|0--1-----3------3-6--0--1-----3------3-6--|
E|0-----------------4--0-----------------4--|

Gtr2                                     2xs
e|------------------------------------------|
B|------------------------------------------|
G|----89-------1316--------89-------1619----|
D|---8--78--710----1215---8--78--710----1518|
A|- 7-----69-------------7-----69-----------|
E|08-------------------08-------------------|

Gtr1                                                               3xs
e|-------------------------------------------------14--------13--------|
B|---------------------------------------------------0---------0-------|
G|-----2------------------------2---10-11--------11---11---10---10-----|
D|-----4---11-12--9-11-7-3------4---------7----12--------11-------11---|
A|-1-0----------------------1-0-----8--9------0---------0--------------|
E|-2-1-----9--10--6-9--5-1--2-1-----------5----------------------------|

Gtr2                                                               3xs
e--14--15--10-11----6-------14--15--10-11-6---18--------17-------------|
B|---------------------------------------------------------------------
G|-11--12--7--8-----3-------11--12--7--8--3---15--------14-------------|
D|---------------------------------------------------------------------|
A|---------------------------------------------------------------------|
E|---------------------------------------------------------------------|

GTr1
e|-----0---5----------0---5----------0---5----------0---5------------------|
B|------4---4----------4---4----------4---4----------4---4-----------------|
G|---0---0---0--0---0---0---0--0---0---0---0--0---0---0---0--0-------------|
D|--3----------3---3----------3---3----------3---3----------3--------------|
A|-0----------4---0----------4---0----------4---0----------4---------------|
E|-------------------------------------------------------------------------|
Gtr2
e|-----------------------------------0---5----------0---5------------------|
B|------------------------------------4---4----------4---4-----------------|
G|---------------------------------0---0---0--0---0---0---0--0-------------|
D|--------------------------------3----------3---3----------3--------------|
A|-------------------------------0----------4---0----------4---------------|
E|-------------------------------------------------------------------------|
Gtr1
e|-----0---5----------0---5----------0---5----------0---5------------------|
B|------4---4----------4---4----------4---4----------4---4-----------------|
G|---0---0---0--0---0---0---0--0---0---0---0--0---0---0---0--0-------------|
D|--3----------3---3----------3---3----------3---3----------3--------------|
A|-0----------4---0----------4---0----------4---0----------4---------------|
E|-------------------------------------------------------------------------|
Gtr2
e|-----0---5----------0---5----------0---5----------0---5------------------|
B|------4---4----------4---4----------4---4----------4---4-----------------|
G|---0---0---0--0---0---0---0--0---0---0---0--0---0---0---0--0-------------|
D|--3----------3---3----------3---3----------3---3----------3--------------|
A|-0----------4---0----------4---0----------4---0----------4---------------|
E|-------------------------------------------------------------------------|
Gtr1                           2xs
e|-----0---5----------0---5-------|
B|------4---4----------4---4------|
G|---0---0---0--0---0---0---0--0--|
D|--3----------3---3----------3---|chorus
A|-0----------4---0----------4----|
E|--------------------------------|
Gtr2                           2xs
e|-12----------------------7-12*--|
B|---------11-------8-54-------12*|
G|-----89---------45-----50-------|chorus
D|-------10-----------------------|
A|--------------------------------|
E|--------------------------------|

gtr 1&2
e|--------|
B|--------|
G|--------|
D|--------|
A|-0-0----|
E|-0-0----|

Gtr 1&2                                             4xs
e|------------------------------------------------------|
B|-------4------------4-4------4-4-------4--------------|
G|-------3------------3-3------3-3-------3--------------|
D|------------------------------------------------------|
A|-------1------------1-1------1-1-------1--------------|
E|-000-0-0--0-0--000--0-0--0-0-0-0--0-0-0--0-0--000-0-0-|

Gtr1        8xs
e|-------0-----|
B|--------12---|
G|----------0--|
D|-----9-----9-|
A|---11--------|
E|-11----------|


Gtr 1&2                                             4xs
e|------------------------------------------------------|
B|-------4------------4-4------4-4-------4--------------|
G|-------3------------3-3------3-3-------3--------------|
D|------------------------------------------------------|
A|-------1------------1-1------1-1-------1--------------|
E|-000-0-0--0-0--000--0-0--0-0-0-0--0-0-0--0-0--000-0-0-|

Tap to rate this tab
 
# A B C D E F G H I J K L M N O P Q R S T U V W X Y Z