Song name
# A B C D E F G H I J K L M N O P Q R S T U V W X Y Z

Misc Unsigned Bands - Cfc Yfl Music Ministry Jband - Strength In God tab

Title: Strength In God
Artist: CFC YFL Music Ministry (JBand)
Album: Live For You
Tabbed by: Thel Reazo
email: yeepee21@yaho.com
Standard Tuning

Intro:
e|---------------------------------------|
B|---------------------------9/10--------|
G|--------7-6---7-6---7/9-7--------------|
D|------------7-----7--------------------|
A|---------------------------------------|
E|---------------------------------------|

e|---------------------------------------|
B|---------------------------------------|
G|--------7-6---7-6---7/9--7-6-7---------|
D|------------7-----7--------------------|
A|---------------------------------------|
E|---------------------------------------|

Verse:
e|---------------------------------------|
B|---------------------------------------|
G|--------7777--------7777---------------|
D|--------7777--5555--7777--7777---------|
A|--------5555--5555--5555--7777---------|
E|--------------3333--------5555---------|
                                               repeat 2x
e|---------------------------------------|
B|---------------------------------------|
G|--------7777---------------------------|
D|--------7777--5555--7777---------------|
A|--------5555--5555--7777---------------|
E|--------------3333--5555---------------|

Refrain:
e|------------------------------------------------------------|
B|------------------------------------------------------------|
G|--------9999--7777--------4444--9999--7777------------------|
D|--------9999--7777--5555--4444--9999--7777--7777------------|
A|--------7777--5555--5555--2222--7777--5555--7777------------|
E|--------------------3333--------------------5555------------|

Chorus:
e|---------------------------------------|
B|---------------------------------------|
G|--------4444--7777---------------------|       repeat 3x
D|--------4444--7777--5555---------------|
A|--------2222--5555--5555---------------|
E|--------------------3333---------------|

e|---------------------------------------|
B|---------------------------------------|
G|--------4444--7777---------------------|
D|--------4444--7777--5555--7777---------|
A|--------2222--5555--5555--7777---------|
E|--------------------3333--5555---------|

Bridge:
e|---------------------------------------|
B|---------------------------------------|
G|--------9999--7777---------------------|
D|--------9999--5555--7777---------------|       repeat 5x
A|--------7777--5555--7777---------------|
E|--------------------5555---------------|


Lyrics:
Strength In God

Verse:
I have seen His glory the One and Only
who came from the Father full of grace ad truth
Yet I do things solely believing that I am enough
still You redeem me when I kneel before You

Refrain:
Everyday, even in my darkest
and brightest days

Chorus:
And I pray, Lord You be my strength
now more than ever, I surrender
And I'll stay into Your arms
in everything I do all glory and praise be to You

Bridge:
My God is now my strength
  (My God is now my strength)
My God is now my strength
  (My God is now my strength)
My God is now my strength
My God is now my strength
My God is now my strength



----------------
Enjoy! God bless! :D
Tap to rate this tab
 
# A B C D E F G H I J K L M N O P Q R S T U V W X Y Z