Song name
# A B C D E F G H I J K L M N O P Q R S T U V W X Y Z

Misc Unsigned Bands - Cfc Yfl Music Ministry - Jbandalmighty tab

Title: Almighty
Artist: CFC YFL (JBand)
Album: Live For You
Tabbed by: Thel Reazo
email: yeepee21@yaho0.com
Standard Tuning

Intro:
Guitar 1
e|----------------------------------------------|
B|----------------------------------------------|
G|-----------------7777--6666--7777--9999-------|
D|-----4444--7777--7777--6666--7777--9999-------|
A|-----4444--7777--5555--4444--5555--7777-------|
E|-----2222--5555-------------------------------|
                                                   repeat 2x
Guitar 2
e|-----17-16------------------------------------|
B|-----------17----------17---------------------|
G|--------------18-19-------19-18-16-18---------|
D|--------------------19----------------19------|
A|----------------------------------------------|
E|----------------------------------------------|

e|----------------------------------------------|
B|----------------------------------------------|
G|-----------16-18-------18-16-------16---------|
D|-----19-19-------19-19-------18-19------------|
A|----------------------------------------------|
E|----------------------------------------------|


Verse:
e|----------------------------------------------|
B|----------------------------------------------|
G|-----------9999--7777-------------------------|
D|-----7777--9999--7777-------------------------|   repeat 3x
A|-----7777--7777--5555-------------------------|
E|-----5555-------------------------------------|

Chorus:
e|----------------------------------------------|
B|----------------------------------------------|
G|-----------9999--7777-------------------------|
D|-----7777--9999--7777-------------------------|   repeat 2x
A|-----7777--7777--5555-------------------------|
E|-----5555-------------------------------------|

Solo:

Guitar 1
e|----------------------------------------------|
B|----------------------------------------------|
G|-----------7777--9999--6666--7777--9999-------|
D|-----4444--7777--9999--6666--7777--9999-------|
A|-----4444--5555--7777--4444--5555--7777-------|
E|-----2222-------------------------------------|

Guitar 2
e|-----17-16------------------------------------|
B|-----------17----------17---------------------|
G|--------------18-19-------19-18-16-18---------|
D|--------------------19----------------19------|
A|----------------------------------------------|
E|----------------------------------------------|

e|----------------------------------------------|
B|----------------------------------------------|
G|-----------16-18-------18-16-------16---------|
D|-----19-19-------19-19-------18-19------------|
A|----------------------------------------------|
E|----------------------------------------------|


Lyrics:

Verse:
Take us from the dark
Show us where to start
Lead the way and we will follow You

You've embraced us with Your love
No matter what we do
Nothing separates us from Your love

Refrain:
And we will turn away from what breaks Your heart
And we will glorify Your Name

Chorus:
Almighty! Just and righteous is He
Let Your name be lifted high above
Almighty! Just and righteous is He
All our praise goes out to You alone


---------------------------------
Sana tama! Hehe. God bless! :D
Tap to rate this tab
 
# A B C D E F G H I J K L M N O P Q R S T U V W X Y Z