Misc Unsigned Bands - Coat Of Arms - Ballad O The Mariner tab

Song: BALLAD OF THE MARINER
Artist: COAT OF ARMS
Album: THIS IS MANSLAUGHTER (2011)

Music Video: http://www.youtube.com/watch?v=4ZLjl9CSHyc
Fb Fanpage: www.facebook.com/coatofarmsband
Youtube Channel: www.youtube.com/user/coatofarmsband
Revernation: www.reverbnation.com/coatofarms

Bailouni
             PM PM PM PM     PM PM                    
             S  S  S  S  S S S  S  T T S S S S S S S  
D||-------|------------------------------------------|
A||-------|------------------------------------------|
F||-------|------------------------------------------|
C||-------|------------------------------------------|
G||-------|--------------3-5-------7-8-7-5-0-3-0-3-5-|
C||-------|--0--0--0--0------0--0--------------------|


  PM PM PM PM                           
  S  S  S  S  S S S S  E    E  S S S S  
---------------------------------------|
---------------------------------------|
---------------------------------------|
---------------------------------------|
--------------3-5-----10s--12--8-8-L-L-|
--0--0--0--0------0-0-10---12--8-8-L-L-|


  PM PM PM PM     PM PM                    
  S  S  S  S  S S S  S  T T S S S S S S S  
------------------------------------------|
------------------------------------------|
------------------------------------------|
------------------------------------------|
--------------3-5-------7-8-7-5-0-3-0-3-5-|
--0--0--0--0------0--0--------------------|


  PM PM PM PM         PM PM PM PM PM PM PM PM  
  S  S  S  S  S S S S S  S  S  S  S  S  S  S   
----------------------------------------------|
----------------------------------------------|
----------------------------------------------|
----------------------------------------------|
--------------3-5-----------------------------|
--0--0--0--0------0-0-5--5--5--5--1--1--1--1--|


  PM PM PM PM     PM PM                    
  S  S  S  S  S S S  S  T T S S S S S S S  
------------------------------------------|
------------------------------------------|
------------------------------------------|
------------------------------------------|
--------------3-5-------7-8-7-5-0-3-0-3-5-|
--0--0--0--0------0--0--------------------|


  PM PM PM PM                         
  S  S  S  S  S S S S E   E  S S S S  
-------------------------------------|
-------------------------------------|
-------------------------------------|
----------------------5s--7----------|
--------------3-5-----3s--5--8-8-L-L-|
--0--0--0--0------0-0--------8-8-L-L-|


  PM PM PM PM     PM PM                    
  S  S  S  S  S S S  S  T T S S S S S S S  
------------------------------------------|
------------------------------------------|
------------------------------------------|
------------------------------------------|
--------------3-5-------7-8-7-5-0-3-0-3-5-|
--0--0--0--0------0--0--------------------|


  PM PM PM PM         PM PM PM PM PM PM PM PM  
  S  S  S  S  S S S S S  S  S  S  S  S  S  S   
----------------------------------------------|
----------------------------------------------|
----------------------------------------------|
----------------------------------------------|
--------------3-5-----------------------------|
--0--0--0--0------0-0-5--5--5--5--1--1--1--1--|


  PM PM PM PM   PM PM   PM PM         PM PM  
  S  S  S  S  S S  S  S S  S  S S S S S  S   
--------------------------------------------|
--------------------------------------------|
--------------------------------------------|
--------------------------------------------|
--0--0--0--0----0--0----0--0----------0--0--|
--0--0--0--0----0--0----0--0----------0--0--|


  PM PM         PM PM PM PM            
  S  S  S S S S S  S  S  S  S S E  E   
--------------------------------------|
--------------------------------------|
--------------------------------------|
--------------------------------7--L--|
--0--0----------0--0--0--0------3--L--|
--0--0----------0--0--0--0------3--L--|


  PM PM PM PM   PM PM   PM PM         PM PM  
  S  S  S  S  S S  S  S S  S  S S S S S  S   
--------------------------------------------|
--------------------------------------------|
--------------------------------------------|
--------------------------------------------|
--0--0--0--0----0--0----0--0----------0--0--|
--0--0--0--0----0--0----0--0----------0--0--|


  PM PM         PM PM PM PM             
  S  S  S S S S S  S  S  S  S S  E  E   
---------------------------------------|
---------------------------------------|
---------------------------------------|
--------------------------------10--L--|
--0--0----------0--0--0--0-------8--L--|
--0--0----------0--0--0--0-------8--L--|


  PM PM PM PM   PM PM   PM PM         PM PM  
  S  S  S  S  S S  S  S S  S  S S S S S  S   
--------------------------------------------|
--------------------------------------------|
--------------------------------------------|
--------------------------------------------|
--0--0--0--0----0--0----0--0----------0--0--|
--0--0--0--0----0--0----0--0----------0--0--|


  PM PM         PM PM PM PM            
  S  S  S S S S S  S  S  S  S S E  E   
--------------------------------------|
--------------------------------------|
--------------------------------------|
--------------------------------7--L--|
--0--0----------0--0--0--0------3--L--|
--0--0----------0--0--0--0------3--L--|


  PM PM PM PM   PM PM   PM PM         PM PM  
  S  S  S  S  S S  S  S S  S  S S S S S  S   
--------------------------------------------|
--------------------------------------------|
--------------------------------------------|
--------------------------------------------|
--0--0--0--0----0--0----0--0----------0--0--|
--0--0--0--0----0--0----0--0----------0--0--|


  PM PM         PM PM PM PM             
  S  S  S S S S S  S  S  S  S S  E  E   
---------------------------------------|
---------------------------------------|
---------------------------------------|
--------------------------------10--L--|
--0--0----------0--0--0--0-------8--L--|
--0--0----------0--0--0--0-------8--L--|


  PM PM PM PM   PM PM   PM PM              
  S  S  S  S  S S  S  S S  S  S S S S S S  
------------------------------------------|
------------------------------------------|
------------------------------------------|
------------------------------------------|
--0--0--0--0--L-0--0--L-0--0--L-L-L-L-L-L-|
--0--0--0--0--L-0--0--L-0--0--L-L-L-L-L-L-|


  PM PM PM PM   PM PM   PM PM              
  S  S  S  S  S S  S  S S  S  S S S S S S  
------------------------------------------|
------------------------------------------|
------------------------------------------|
------------------------------------------|
--0--0--0--0--L-0--0--L-0--0--L-L-L-L-L-L-|
--0--0--0--0--L-0--0--L-0--0--L-L-L-L-L-L-|


  PM PM PM PM   PM PM   PM PM              
  S  S  S  S  S S  S  S S  S  S S S S S S  
------------------------------------------|
------------------------------------------|
------------------------------------------|
------------------------------------------|
--8--8--8--8--L-8--8--L-8--8--L-L-L-L-L-L-|
--8--8--8--8--L-8--8--L-8--8--L-L-L-L-L-L-|


  PM PM PM PM   PM PM              W      
  S  S  S  S  S S  S  S S  S S S   Q      
-----------------------------------------|
-----------------------------------------|
-----------------------------------------|
-----------------------------------------|
--5--5--5--5--L-5--5--L-0h-L-1-L-<>3~----|
--5--5--5--5--L-5--5--L-0h-L-1-L---------|


  PM PM PM PM   PM PM   PM PM              
  S  S  S  S  S S  S  S S  S  S S S S S S  
------------------------------------------|
------------------------------------------|
------------------------------------------|
------------------------------------------|
--0--0--0--0--L-0--0--L-0--0--L-L-L-L-L-L-|
--0--0--0--0--L-0--0--L-0--0--L-L-L-L-L-L-|


  PM PM PM PM   PM PM   PM PM              
  S  S  S  S  S S  S  S S  S  S S S S S S  
------------------------------------------|
------------------------------------------|
------------------------------------------|
------------------------------------------|
--0--0--0--0--L-0--0--L-0--0--L-L-L-L-L-L-|
--0--0--0--0--L-0--0--L-0--0--L-L-L-L-L-L-|


  PM PM PM PM   PM PM   PM PM              
  S  S  S  S  S S  S  S S  S  S S S S S S  
------------------------------------------|
------------------------------------------|
------------------------------------------|
------------------------------------------|
--8--8--8--8--L-8--8--L-8--8--L-L-L-L-L-L-|
--8--8--8--8--L-8--8--L-8--8--L-L-L-L-L-L-|


  PM PM PM PM   PM PM              W                            
  S  S  S  S  S S  S  S S  S S S   Q        H        Q    Q     
-----------------------------------------|---------------------|
-----------------------------------------|---------------------|
-----------------------------------------|---------------------|
-----------------------------------------|--0--------L---------|
--5--5--5--5--L-5--5--L-0h-L-1-L-<>3~----|--0--------L---------|
--5--5--5--5--L-5--5--L-0h-L-1-L---------|--0--------L---------|


                                   PM PM PM PM PM PM PM PM PM PM PM PM  
  E  E  E   E   E   E  Q       S S S  S  S  S  S  S  S  S  S  S  E  E   
----------------------------|------------------------------------------|
----------------------------|------------------------------------------|
----------------------------|------------------------------------------|
--7--7--7--10--10--10--0----|--L-L-------------------------------------|
--7--7--7--10--10--10--0----|--L-L-0--0--0--0--0--0--0--0--0--0--0--0--|
--7--7--7--10--10--10--0----|--L-L-0--0--0--0--0--0--0--0--0--0--0--0--|


                                   PM PM PM PM PM PM PM PM PM PM PM PM  
  E  E  E   E   E   E  Q       S S S  S  S  S  S  S  S  S  S  S  E  E   
----------------------------|------------------------------------------|
----------------------------|------------------------------------------|
----------------------------|------------------------------------------|
--7--7--7--10--10--10--0----|--L-L-------------------------------------|
--7--7--7--10--10--10--0----|--L-L-0--0--0--0--0--0--0--0--0--0--0--0--|
--7--7--7--10--10--10--0----|--L-L-0--0--0--0--0--0--0--0--0--0--0--0--|


                                   PM PM PM PM PM PM PM PM PM PM PM PM  
  E  E  E   E   E   E  Q       S S S  S  S  S  S  S  S  S  S  S  E  E   
----------------------------|------------------------------------------|
----------------------------|------------------------------------------|
----------------------------|------------------------------------------|
--7--7--7--10--10--10--0----|--L-L-------------------------------------|
--7--7--7--10--10--10--0----|--L-L-0--0--0--0--0--0--0--0--0--0--0--0--|
--7--7--7--10--10--10--0----|--L-L-0--0--0--0--0--0--0--0--0--0--0--0--|


  E  E  E  E  E  E  E  E     E  E  E  E  E  E  E  E   
--------------------------|--------------------------|
--------------------------|--------------------------|
--------------------------|--5--5--5--5--------------|
--3--3--3--3--3--3--3--3--|--5--5--5--5--5--5--5--5--|
--3--3--3--3--3--3--3--3--|--3--3--3--3--5--5--5--5--|
--3--3--3--3--3--3--3--3--|--------------5--5--5--5--|


                                   PM PM PM PM PM PM PM PM PM PM PM PM  
  E  E  E   E   E   E  Q       S S S  S  S  S  S  S  S  S  S  S  E  E   
----------------------------|------------------------------------------|
----------------------------|------------------------------------------|
----------------------------|------------------------------------------|
--7--7--7--10--10--10--0----|--L-L-------------------------------------|
--7--7--7--10--10--10--0----|--L-L-0--0--0--0--0--0--0--0--0--0--0--0--|
--7--7--7--10--10--10--0----|--L-L-0--0--0--0--0--0--0--0--0--0--0--0--|


                                   PM PM PM PM PM PM PM PM PM PM PM PM  
  E  E  E   E   E   E  Q       S S S  S  S  S  S  S  S  S  S  S  E  E   
----------------------------|------------------------------------------|
----------------------------|------------------------------------------|
----------------------------|------------------------------------------|
--7--7--7--10--10--10--0----|--L-L-------------------------------------|
--7--7--7--10--10--10--0----|--L-L-0--0--0--0--0--0--0--0--0--0--0--0--|
--7--7--7--10--10--10--0----|--L-L-0--0--0--0--0--0--0--0--0--0--0--0--|


                                   PM PM PM PM PM PM PM PM PM PM PM PM  
  E  E  E   E   E   E  Q       S S S  S  S  S  S  S  S  S  S  S  E  E   
----------------------------|------------------------------------------|
----------------------------|------------------------------------------|
----------------------------|------------------------------------------|
--7--7--7--10--10--10--0----|--L-L-------------------------------------|
--7--7--7--10--10--10--0----|--L-L-0--0--0--0--0--0--0--0--0--0--0--0--|
--7--7--7--10--10--10--0----|--L-L-0--0--0--0--0--0--0--0--0--0--0--0--|


  E  E  E  E  E  E  E  E     E  E  E  E  E  E  E  E   
--------------------------|--------------------------|
--------------------------|--------------------------|
--------------------------|--5--5--5--5--------------|
--3--3--3--3--3--3--3--3--|--5--5--5--5--5-----------|
--3--3--3--3--3--3--3--3--|--3--3--3--3--5-----------|
--3--3--3--3--3--3--3--3--|--------------5-----------|


  PM PM PM PM   PM PM   PM PM              
  S  S  S  S  S S  S  S S  S  S S S S S S  
------------------------------------------|
------------------------------------------|
------------------------------------------|
------------------------------------------|
--0--0--0--0--L-0--0--L-0--0--L-L-L-L-L-L-|
--0--0--0--0--L-0--0--L-0--0--L-L-L-L-L-L-|


  PM PM PM PM   PM PM   PM PM              
  S  S  S  S  S S  S  S S  S  S S S S S S  
------------------------------------------|
------------------------------------------|
------------------------------------------|
------------------------------------------|
--0--0--0--0--L-0--0--L-0--0--L-L-L-L-L-L-|
--0--0--0--0--L-0--0--L-0--0--L-L-L-L-L-L-|


  PM PM PM PM   PM PM   PM PM              
  S  S  S  S  S S  S  S S  S  S S S S S S  
------------------------------------------|
------------------------------------------|
------------------------------------------|
------------------------------------------|
--8--8--8--8--L-8--8--L-8--8--L-L-L-L-L-L-|
--8--8--8--8--L-8--8--L-8--8--L-L-L-L-L-L-|


  PM PM PM PM   PM PM              W      
  S  S  S  S  S S  S  S S  S S S   Q      
-----------------------------------------|
-----------------------------------------|
-----------------------------------------|
-----------------------------------------|
--5--5--5--5--L-5--5--L-0h-L-1-L-<>3~----|
--5--5--5--5--L-5--5--L-0h-L-1-L---------|


  PM PM PM PM   PM PM   PM PM              
  S  S  S  S  S S  S  S S  S  S S S S S S  
------------------------------------------|
------------------------------------------|
------------------------------------------|
------------------------------------------|
--0--0--0--0--L-0--0--L-0--0--L-L-L-L-L-L-|
--0--0--0--0--L-0--0--L-0--0--L-L-L-L-L-L-|


  PM PM PM PM   PM PM   PM PM              
  S  S  S  S  S S  S  S S  S  S S S S S S  
------------------------------------------|
------------------------------------------|
------------------------------------------|
------------------------------------------|
--0--0--0--0--L-0--0--L-0--0--L-L-L-L-L-L-|
--0--0--0--0--L-0--0--L-0--0--L-L-L-L-L-L-|


  PM PM PM PM   PM PM   PM PM              
  S  S  S  S  S S  S  S S  S  S S S S S S  
------------------------------------------|
------------------------------------------|
------------------------------------------|
------------------------------------------|
--8--8--8--8--L-8--8--L-8--8--L-L-L-L-L-L-|
--8--8--8--8--L-8--8--L-8--8--L-L-L-L-L-L-|


  PM PM PM PM   PM PM              W                            
  S  S  S  S  S S  S  S S  S S S   Q        H        Q    Q     
-----------------------------------------|---------------------|
-----------------------------------------|---------------------|
-----------------------------------------|---------------------|
-----------------------------------------|--0--------L---------|
--5--5--5--5--L-5--5--L-0h-L-1-L-<>3~----|--0--------L---------|
--5--5--5--5--L-5--5--L-0h-L-1-L---------|--0--------L---------|


                                   PM PM PM PM PM PM PM PM PM PM PM PM  
  E  E  E   E   E   E  Q       S S S  S  S  S  S  S  S  S  S  S  E  E   
----------------------------|------------------------------------------|
----------------------------|------------------------------------------|
----------------------------|------------------------------------------|
--7--7--7--10--10--10--0----|--L-L-------------------------------------|
--7--7--7--10--10--10--0----|--L-L-0--0--0--0--0--0--0--0--0--0--0--0--|
--7--7--7--10--10--10--0----|--L-L-0--0--0--0--0--0--0--0--0--0--0--0--|


                                   PM PM PM PM PM PM PM PM PM PM PM PM  
  E  E  E   E   E   E  Q       S S S  S  S  S  S  S  S  S  S  S  E  E   
----------------------------|------------------------------------------|
----------------------------|------------------------------------------|
----------------------------|------------------------------------------|
--7--7--7--10--10--10--0----|--L-L-------------------------------------|
--7--7--7--10--10--10--0----|--L-L-0--0--0--0--0--0--0--0--0--0--0--0--|
--7--7--7--10--10--10--0----|--L-L-0--0--0--0--0--0--0--0--0--0--0--0--|


                                   PM PM PM PM PM PM PM PM PM PM PM PM  
  E  E  E   E   E   E  Q       S S S  S  S  S  S  S  S  S  S  S  E  E   
----------------------------|------------------------------------------|
----------------------------|------------------------------------------|
----------------------------|------------------------------------------|
--7--7--7--10--10--10--0----|--L-L-------------------------------------|
--7--7--7--10--10--10--0----|--L-L-0--0--0--0--0--0--0--0--0--0--0--0--|
--7--7--7--10--10--10--0----|--L-L-0--0--0--0--0--0--0--0--0--0--0--0--|


  E  E  E  E  E  E  E  E     E  E  E  E  E  E  E  E   
--------------------------|--------------------------|
--------------------------|--------------------------|
--------------------------|--5--5--5--5--------------|
--3--3--3--3--3--3--3--3--|--5--5--5--5--5--5--5--5--|
--3--3--3--3--3--3--3--3--|--3--3--3--3--5--5--5--5--|
--3--3--3--3--3--3--3--3--|--------------5--5--5--5--|


                                   PM PM PM PM PM PM PM PM PM PM PM PM  
  E  E  E   E   E   E  Q       S S S  S  S  S  S  S  S  S  S  S  E  E   
----------------------------|------------------------------------------|
----------------------------|------------------------------------------|
----------------------------|------------------------------------------|
--7--7--7--10--10--10--0----|--L-L-------------------------------------|
--7--7--7--10--10--10--0----|--L-L-0--0--0--0--0--0--0--0--0--0--0--0--|
--7--7--7--10--10--10--0----|--L-L-0--0--0--0--0--0--0--0--0--0--0--0--|


                                   PM PM PM PM PM PM PM PM PM PM PM PM  
  E  E  E   E   E   E  Q       S S S  S  S  S  S  S  S  S  S  S  E  E   
----------------------------|------------------------------------------|
----------------------------|------------------------------------------|
----------------------------|------------------------------------------|
--7--7--7--10--10--10--0----|--L-L-------------------------------------|
--7--7--7--10--10--10--0----|--L-L-0--0--0--0--0--0--0--0--0--0--0--0--|
--7--7--7--10--10--10--0----|--L-L-0--0--0--0--0--0--0--0--0--0--0--0--|


                                   PM PM PM PM PM PM PM PM PM PM PM PM  
  E  E  E   E   E   E  Q       S S S  S  S  S  S  S  S  S  S  S  E  E   
----------------------------|------------------------------------------|
----------------------------|------------------------------------------|
----------------------------|------------------------------------------|
--7--7--7--10--10--10--0----|--L-L-------------------------------------|
--7--7--7--10--10--10--0----|--L-L-0--0--0--0--0--0--0--0--0--0--0--0--|
--7--7--7--10--10--10--0----|--L-L-0--0--0--0--0--0--0--0--0--0--0--0--|


  E  E  E  E  E  E  E  E     E  E  E  E  E  E  E  E   
--------------------------|--------------------------|
--------------------------|--------------------------|
--------------------------|--5--5--5--5--------------|
--3--3--3--3--3--3--3--3--|--5--5--5--5--5--5--5--5--|
--3--3--3--3--3--3--3--3--|--3--3--3--3--5--5--5--5--|
--3--3--3--3--3--3--3--3--|--------------5--5--5--5--|


  PM    PM    PM       PM       PM    PM PM PM PM PM PM PM     
  E  E  E  E  E  E  E  E     E  E  E  S  S  S  S  S  S  E  E   
--------------------------|-----------------------------------|
--------------------------|-----------------------------------|
--------------------------|-----------------------------------|
--------------------------|-----------------------------------|
--0-----0-----0--------0--|-----0-----0--0--0--0--0--0--0-----|
--0-----0-----0--------0--|-----0-----0--0--0--0--0--0--0-----|


  PM    PM    PM       PM       PM PM PM PM PM PM PM            
  E  E  E  E  E  E  E  E     E  S  S  S  S  S  S  E  E   E  E   
--------------------------|------------------------------6--L--|
--------------------------|-----------------------------10--L--|
--------------------------|------------------------------------|
--------------------------|------------------------------------|
--0-----0-----0--------0--|-----0--0--0--0--0--0--0------------|
--0-----0-----0--------0--|-----0--0--0--0--0--0--0------------|


  PM    PM    PM       PM       PM    PM PM PM PM PM PM PM     
  E  E  E  E  E  E  E  E     E  E  E  S  S  S  S  S  S  E  E   
--------------------------|-----------------------------------|
--------------------------|-----------------------------------|
--------------------------|-----------------------------------|
--------------------------|-----------------------------------|
--0--L--0--L--0--L--L--0--|--L--0--L--0--0--0--0--0--0--0--L--|
--0--L--0--L--0--L--L--0--|--L--0--L--0--0--0--0--0--0--0--L--|


  PM    PM    PM       PM       PM PM PM PM PM PM PM            
  E  E  E  E  E  E  E  E     E  S  S  S  S  S  S  E  E   E  E   
--------------------------|------------------------------6--L--|
--------------------------|-----------------------------10--L--|
--------------------------|------------------------------------|
--------------------------|------------------------------------|
--0--L--0--L--0--L--L--0--|-----0--0--0--0--0--0--0------------|
--0--L--0--L--0--L--L--0--|-----0--0--0--0--0--0--0------------|


  PM    PM    PM       PM       PM    PM PM PM PM PM PM PM     
  E  E  E  E  E  E  E  E     E  E  E  S  S  S  S  S  S  E  E   
--------------------------|-----------------------------------|
--------------------------|-----------------------------------|
--------------------------|-----------------------------------|
--------------------------|-----------------------------------|
--0--L--0--L--0--L--L--0--|--L--0--L--0--0--0--0--0--0--0--L--|
--0--L--0--L--0--L--L--0--|--L--0--L--0--0--0--0--0--0--0--L--|


  PM    PM    PM       PM       PM PM PM PM PM PM PM            
  E  E  E  E  E  E  E  E     E  S  S  S  S  S  S  E  E   E  E   
--------------------------|------------------------------6--L--|
--------------------------|-----------------------------10--L--|
--------------------------|------------------------------------|
--------------------------|------------------------------------|
--0--L--0--L--0--L--L--0--|-----0--0--0--0--0--0--0------------|
--0--L--0--L--0--L--L--0--|-----0--0--0--0--0--0--0------------|


                                   PM PM PM PM PM PM PM PM PM PM PM PM  
  E  E  E   E   E   E  Q       S S S  S  S  S  S  S  S  S  S  S  E  E   
----------------------------|------------------------------------------|
----------------------------|------------------------------------------|
----------------------------|------------------------------------------|
--7--7--7--10--10--10--0----|--L-L-------------------------------------|
--7--7--7--10--10--10--0----|--L-L-0--0--0--0--0--0--0--0--0--0--0--0--|
--7--7--7--10--10--10--0----|--L-L-0--0--0--0--0--0--0--0--0--0--0--0--|


                                   PM PM PM PM PM PM PM PM PM PM PM     
  E  E  E   E   E   E  Q       S S S  S  S  S  S  S  S  S  S  S  E  E   
----------------------------|------------------------------------------|
----------------------------|------------------------------------------|
----------------------------|------------------------------------------|
--7--7--7--10--10--10--0----|--L-L-------------------------------------|
--7--7--7--10--10--10--0----|--L-L-0--0--0--0--0--0--0--0--0--0--0-----|
--7--7--7--10--10--10--0----|--L-L-0--0--0--0--0--0--0--0--0--0--0-----|


                                   PM PM PM PM PM PM PM PM PM PM PM PM  
  E  E  E   E   E   E  Q       S S S  S  S  S  S  S  S  S  S  S  E  E   
----------------------------|------------------------------------------|
----------------------------|------------------------------------------|
----------------------------|------------------------------------------|
--7--7--7--10--10--10--0----|--L-L-------------------------------------|
--7--7--7--10--10--10--0----|--L-L-0--0--0--0--0--0--0--0--0--0--0--0--|
--7--7--7--10--10--10--0----|--L-L-0--0--0--0--0--0--0--0--0--0--0--0--|


  E  E  E  E  E  E  E  E     E  E  E  E  E  E  E  E   
--------------------------|--------------------------|
--------------------------|--------------------------|
--------------------------|--5--5--5--5--------------|
--3--3--3--3--3--3--3--3--|--5--5--5--5--5--5--5--5--|
--3--3--3--3--3--3--3--3--|--3--3--3--3--5--5--5--5--|
--3--3--3--3--3--3--3--3--|--------------5--5--5--5--|


                                   PM PM PM PM PM PM PM PM PM PM PM PM  
  E  E  E   E   E   E  Q       S S S  S  S  S  S  S  S  S  S  S  E  E   
----------------------------|------------------------------------------|
----------------------------|------------------------------------------|
----------------------------|------------------------------------------|
--7--7--7--10--10--10--0----|--L-L-------------------------------------|
--7--7--7--10--10--10--0----|--L-L-0--0--0--0--0--0--0--0--0--0--0--0--|
--7--7--7--10--10--10--0----|--L-L-0--0--0--0--0--0--0--0--0--0--0--0--|


                                   PM PM PM PM PM PM PM PM          
  E  E  E   E   E   E  Q       S S S  S  S  S  S  S  S  E  S E  E   
----------------------------|--------------------------------------|
----------------------------|--------------------------------------|
----------------------------|--------------------------------------|
--7--7--7--10--10--10--0----|--L-L---------------------------------|
--7--7--7--10--10--10--0----|--L-L-0--0--0--0--0--0--0--0----------|
--7--7--7--10--10--10--0----|--L-L-0--0--0--0--0--0--0--0----------|


                                   PM PM PM PM PM PM PM PM PM PM PM PM  
  E  E  E   E   E   E  Q       S S S  S  S  S  S  S  S  S  S  S  E  E   
----------------------------|------------------------------------------|
----------------------------|------------------------------------------|
----------------------------|------------------------------------------|
--7--7--7--10--10--10--0----|--L-L-------------------------------------|
--7--7--7--10--10--10--0----|--L-L-0--0--0--0--0--0--0--0--0--0--0--0--|
--7--7--7--10--10--10--0----|--L-L-0--0--0--0--0--0--0--0--0--0--0--0--|


  E  E  E  E  E  E  E  E     E  E  E  E  E  E  E  E   
--------------------------|--------------------------|
--------------------------|--------------------------|
--------------------------|--5--5--5--5--------------|
--3--3--3--3--3--3--3--3--|--5--5--5--5--5--5--5--5--|
--3--3--3--3--3--3--3--3--|--3--3--3--3--5--5--5--5--|
--3--3--3--3--3--3--3--3--|--------------5--5--5--5--|


  PM    PM    PM       PM       PM    PM PM PM PM PM PM PM     
  E  E  E  E  E  E  E  E     E  E  E  S  S  S  S  S  S  E  E   
--------------------------|-----------------------------------|
--------------------------|-----------------------------------|
--------------------------|-----------------------------------|
--------------------------|-----------------------------------|
--0-----0-----0--------0--|-----0-----0--0--0--0--0--0--0-----|
--0-----0-----0--------0--|-----0-----0--0--0--0--0--0--0-----|


  PM    PM    PM       PM       PM PM PM PM PM PM PM            
  E  E  E  E  E  E  E  E     E  S  S  S  S  S  S  E  E   E  E   
--------------------------|------------------------------6--L--|
--------------------------|-----------------------------10--L--|
--------------------------|------------------------------------|
--------------------------|------------------------------------|
--0-----0-----0--------0--|-----0--0--0--0--0--0--0------------|
--0-----0-----0--------0--|-----0--0--0--0--0--0--0------------|


  W                   W                   W                 
--L----------------|-------------------|-------------------|
--L----------------|-------------------|-------------------|
-------------------|-------------------|-------------------|
--0----------------|--L----------------|--L----------------|
--0----------------|--L----------------|--L----------------|
--0----------------|--L----------------|--L----------------|


                         PM          W         PM     
  Q    Q    Q    Q       E  E  E     E   E  E  E  E   
----------------------|------------------------------|
----------------------|------------------------------|
----------------------|------------------------------|
--L----L----L---------|------------------------------|
--L----L----L---------|--0--L--L---------------0--L--|
--L----L----L---------|--0--L--L--<>10b--L--L--0--L--|


      PM PM PM PM PM PM PM       PM          PM          W         PM     
  S S S  S  S  S  S  S  S  S S S S  S S S    E  E  E     E   E  E  E  E   
------------------------------------------|------------------------------|
------------------------------------------|------------------------------|
------------------------------------------|------------------------------|
------------------------------------------|------------------------------|
--L-L-0--0--0--0--0--0--0--L-L-L-0--L-L-L-|--0--L--L---------------0--L--|
--L-L-0--0--0--0--0--0--0--L-L-L-0--L-L-L-|--0--L--L--<>10b--L--L--0--L--|


      PM PM PM PM PM PM PM    v    ^    v      PM                    PM     
  S S S  S  S  S  S  S  S  S  S S  S S  S S    E  E  E    E    E  E  E  E   
------------------------------6-L--6-L--6-L-|------------------------------|
-----------------------------10-L-10-L-10-L-|------------------------------|
--------------------------------------------|------------------------------|
--------------------------------------------|------------------------------|
--L-L-0--0--0--0--0--0--0--L----------------|--0--L--L---------------0--L--|
--L-L-0--0--0--0--0--0--0--L----------------|--0--L--L--<>3b~--L--L--0--L--|


      PM PM PM PM PM PM PM       PM          PM                    PM     
  S S S  S  S  S  S  S  S  S S S S  S S S    E  E  E    E    E  E  E  E   
------------------------------------------|------------------------------|
------------------------------------------|------------------------------|
------------------------------------------|------------------------------|
------------------------------------------|------------------------------|
--L-L-0--0--0--0--0--0--0--L-L-L-0--L-L-L-|--0--L--L---------------0--L--|
--L-L-0--0--0--0--0--0--0--L-L-L-0--L-L-L-|--0--L--L--<>3b~--L--L--0--L--|


      PM PM PM PM PM PM PM    v    ^    v                                 
  S S S  S  S  S  S  S  S  S  S S  S S  S S    E  E  E   E   E  E  E  E   
------------------------------6-L--6-L--6-L-|----------------------------|
-----------------------------10-L-10-L-10-L-|----------------------------|
--------------------------------------------|----------------------------|
--------------------------------------------|----------------------------|
--L-L-0--0--0--0--0--0--0--L----------------|--0-------------------0-----|
--L-L-0--0--0--0--0--0--0--L----------------|--0--------10b--L--L--0-----|


  S S S S S S S S S S S S S S S S    E  E  E   E   E  E  E  E   
----------------------------------|----------------------------|
----------------------------------|----------------------------|
----------------------------------|----------------------------|
----------------------------------|----------------------------|
------0-0-0-0-0-0-0-------0-------|--0-------------------0-----|
------0-0-0-0-0-0-0-------0-------|--0--------10b--L--L--0-----|


      PM PM PM PM PM PM PM    v    ^    v                                 
  S S S  S  S  S  S  S  S  S  S S  S S  S S    E  E  E   E   E  E  E  E   
------------------------------6-L--6-L--6-L-|----------------------------|
-----------------------------10-L-10-L-10-L-|----------------------------|
--------------------------------------------|----------------------------|
--------------------------------------------|----------------------------|
------0--0--0--0--0--0--0--L----------------|--0-------------------0-----|
------0--0--0--0--0--0--0--L----------------|--0--------10b--L--L--0-----|


  S S S S S S S S S S S S S S S S    E  E  E   E   E  E  E  E   
----------------------------------|----------------------------|
----------------------------------|----------------------------|
----------------------------------|----------------------------|
----------------------------------|----------------------------|
------0-0-0-0-0-0-0-------0-------|--0-------------------0-----|
------0-0-0-0-0-0-0-------0-------|--0--------10b--L--L--0-----|


      PM PM PM PM PM PM PM                  PM         W         PM     
  S S S  S  S  S  S  S  S  S S S S S S S    E  E  E    E   E  E  E  E   
-----------------------------------------|-----------------------------|
-----------------------------------------|-----------------------------|
-----------------------------------------|-----------------------------|
-----------------------------------------|-----------------------------|
------0--0--0--0--0--0--0----------------|--0--L--L--------------0--L--|
------0--0--0--0--0--0--0----------------|--0--L--L--<>3b--L--L--0--L--|


      PM PM PM PM PM PM PM       PM          PM         W         PM     
  S S S  S  S  S  S  S  S  S S S S  S S S    E  E  E    E   E  E  E  E   
------------------------------------------|-----------------------------|
------------------------------------------|-----------------------------|
------------------------------------------|-----------------------------|
------------------------------------------|-----------------------------|
--L-L-0--0--0--0--0--0--0--L-L-L-0--L-L-L-|--0--L--L--------------0--L--|
--L-L-0--0--0--0--0--0--0--L-L-L-0--L-L-L-|--0--L--L--<>3b--L--L--0--L--|


      PM PM PM PM PM PM PM    v    ^    v      PM         W         PM     
  S S S  S  S  S  S  S  S  S  S S  S S  S S    E  E  E    E   E  E  E  E   
------------------------------6-L--6-L--6-L-|-----------------------------|
-----------------------------10-L-10-L-10-L-|-----------------------------|
--------------------------------------------|-----------------------------|
--------------------------------------------|-----------------------------|
--L-L-0--0--0--0--0--0--0--L----------------|--0--L--L--------------0--L--|
--L-L-0--0--0--0--0--0--0--L----------------|--0--L--L--<>3b--L--L--0--L--|


      PM PM PM PM PM PM PM       PM          PM         W         PM     
  S S S  S  S  S  S  S  S  S S S S  S S S    E  E  E    E   E  E  E  E   
------------------------------------------|-----------------------------|
------------------------------------------|-----------------------------|
------------------------------------------|-----------------------------|
------------------------------------------|-----------------------------|
--L-L-0--0--0--0--0--0--0--L-L-L-0--L-L-L-|--0--L--L--------------0--L--|
--L-L-0--0--0--0--0--0--0--L-L-L-0--L-L-L-|--0--L--L--<>3b--L--L--0--L--|


      PM PM PM PM PM PM PM    v    ^    v                        
  S S S  S  S  S  S  S  S  S  S S  S S  S S    W                 
------------------------------6-L--6-L--6-L-|-------------------|
-----------------------------10-L-10-L-10-L-|-------------------|
--------------------------------------------|-------------------|
--------------------------------------------|--0----------------|
--L-L-0--0--0--0--0--0--0--L----------------|--0----------------|
--L-L-0--0--0--0--0--0--0--L----------------|--0----------------|


  W                   W                   Q    Q    Q    Q      
-------------------|-------------------|----------------------||
-------------------|-------------------|----------------------||
-------------------|-------------------|----------------------||
--L----------------|--L----------------|--L----L----L---------||
--L----------------|--L----------------|--L----L----L---------||
--L----------------|--L----------------|--L----L----L---------||




Duration Legend
---------------
W - whole
H - half
Q - quarter
E - 8th
S - 16th
T - 32nd
X - 64th
. - note dotted
|-n-|  - n-tuplets


Tablature Legend
----------------
L - tied note
x - dead note
g - grace note
(n) - ghost note
> - accentuded note
NH - natural harmonic
AH - artificial harmonic
TH - tapped harmonic
SH - semi harmonic
PH - pitch harmonic
h - hammer on
p - pull off
b - bend
br - bendRelease
pb - preBend
pbr - preBendRelease
brb - bendReleaseBend
\n/ - tremolo bar dip
\n - tremolo bar dive
-/n - tremolo bar Release up
/n\ - tremolo bar inverted dip
/n - tremolo bar return
-\n - tremolo bar Release down
S - shift slide
s - legato slide
/ -  slide into from below or out of upwards
\ -  slide into from above or out of downwards
~ - vibrato
W - wide vibrato
tr - trill
TP - tremolo picking
T - tapping
S - slap
P - pop
< - fade in
^ - brush up
v - brush down
Tap to rate this tab
 
# A B C D E F G H I J K L M N O P Q R S T U V W X Y Z