Misc Unsigned Bands - Corporate Circus - Fools Paradise chords

Highlighted       Show chord diagrams
Intro is just the D string

e|-------------------------------|
B|-------------------------------|
G|-------------------------------|
D|0-000-000-000-000-000-000-000--|
A|-------------------------------|
E|-------------------------------|


D
One good turn deserves another 
Not my girlfriend just my lover
G 
If I stop dreamin I`m so lonely 
So I pretend I`m the only
D 
One in her mind 
I`m determined To make her mine 
I`m so certain
G
She feels the same way 
That is if I had it my own way 
                     D A D
I would give her the world 



Riff 1
e|-------------------------------|
B|-------------------------------|
G|-------------------------------|
D|-7-5-4-5-4---------------------|
A|-----------5-------------------|
E|-------------------------------| x7

end on
D|-7-5-4-------------------------|
A|-------5-----------------------|
E|-------------------------------|

(Chords to play over riff; D x4, G x4)

D
One fools paradise 
Twice as nice as a rich man`s kindgom 
Price is too high 
G
And when I get down 
I just think how my world is my own
             A            G                   D 
It`s my safe zone I gotta bone to pick with you tonight
G                            D            A 
No I`m not Dairy Queen But I`ll treat you right 

   D 
So bare with me 
    A
Why can`t you see 
  Bm                 G         D
I don`t need you to censor me 
                 A 
If your world was right 
                Bm      G
Mine wouldn`t be wrong 

Riff 1

Solo

e|---------------------------------------------------|
B|---------------------------------------------------|
G|---------------------------------------------------|
D|-------------------------------0-7-5-4-------------|
A|-5-5-5-4-4-4-----------------2---------7-----------|
E|-------------7-7-7-5-4-3-2-3-----------------------|


D            G                  A
  My world recalled So watch me fall 
               G 
  Now don`t we all Wish for something new 
D            G                  A
  My world recalled So watch me fall 
               G
  Now don`t we all Wish for something new 
D            G                  A
  My world recalled So watch me fall 
               G 
  Now don`t we all Wish for something new 
D            G                  A
  My world recalled So watch me fall 
               G
  Now don`t we all Wish for something new 

D A

   D 
So bare with me 
    A
Why can`t you see 
  Bm                 G         D
I don`t need you to censor me 
                 A 
If your world was right 
                Bm      G
Mine wouldn`t be wrong 

   D 
So bare with me 
    A
Why can`t you see 
  Bm                 G         D
I don`t need you to censor me 
                 A 
If your world was right 
               
Mine wouldn`t be wrong 

D
Tap to rate this tab
 
# A B C D E F G H I J K L M N O P Q R S T U V W X Y Z