Song name
# A B C D E F G H I J K L M N O P Q R S T U V W X Y Z

Misc Unsigned Bands - Intruder - Agents Of The Dark Mib tab

-------------------------------------------------------------------------------
		     Agents Of The Dark - Intruder
-------------------------------------------------------------------------------
Tabbed by:Dr.icee21
Email:
Listen for timing
Tuning:Standard

I recomend getting a heavy distortion pedal for this song but if you dont have one just 
play around with the settings on your amp till it sounds right with fuzz.

Intro
Repeat for 16 seconds ( ~~ = use wammy ) listen for timing
e|--------------------------------------------------------------------------|
B|--------------------------------------------------------------------------|
G|--------------------------------------------------------------------------|
D|3----------4----------6------------1~~-----4--------6---------------------|
A|3----------4----------6------------3~~-----4--------6---------------------|
E|1----------2----------4------------3~~-----2--------4---------------------|

(0:17-0:55)Verse Tempo=120
e|--------------------------------------------------------------------------|
B|--------------------------------------------------------------------------|
G|--------------------------------------------------------------------------|
D|--------------------------------------------------------------------------|
A|4-----------5-----------6-----------5-6-7-8-------------------------------|
E|2-x-x-x-x-x-3-x-x-x-x-x-4-x-x-x-x-x-3-4-5-6-------------------------------|


************************************

| /   slide up
| \   slide down
| h   hammer-on
| p   pull-off
| ~   vibrato
| +   harmonic
| x   Mute note
| b   Bend
| pb  Pre-bend
| br  Bend release
| pbr Pre-bend release
| brb Bend release bend

************************************
Im working on Mr.Death from this album 'A Higher Form Of Killing' check my page for updates.
Tap to rate this tab
 
# A B C D E F G H I J K L M N O P Q R S T U V W X Y Z