Misc Unsigned Bands - Phthisis - Sacrifical Crematorium tab

  Sacrifical Crematorium-Phthisis

Tabbed by: The harp
Email:eatmyfukk1@hotmail.com

Tuning:C#F#BEG#C#

Gtr 1&2                                      4xs
e|----------------------------------------------|
B|----------------------------------------------|
G|-4-5-/8----3----4-5-/8----4-5-/8----3----3----|
D|-3-4-/7----2----3-4-/7----3-4-/7----2----2----|
A|-2-3-/6----1----2-3-/6----2-3-/6----1----1----|
E|--------00---00--------00--------00---00---00-|

Gtr1
e|---------------------------------------------------------------|
B|---------------------------------------------------------------|
G|---------------------------------------------------------------|
D|-----3---6----------3---6----------6---9----------6---9--------|
A|--55---5---5-----55---5---5----/88---8---8-----88---8---8------|
E|--------------44-------------44-------------77------------77---|

Gtr2
e|---------------------------------------------------------------|
B|---------------------------------------------------------------|
G|---------------------------------------------------------------|
D|-----3---6----------3---6----------6---9----------6---9--------|
A|--55---5---5-----55---5---5----/88---8---8-----88---8---8------|
E|--------------44-------------44-------------77------------77---|

Gtr1
e|---------------------------------------------------------------|
B|---------------------------------------------------------------|
G|---------------------------------------------------------------|
D|-----3---6----------3---6----------6---9----------6---9--------|
A|--55---5---5-----55---5---5----/88---8---8-----88---8---8------|
E|--------------44-------------44-------------77------------77---|


e|---------------------------------------------------------------|
B|---------------------------------------------------------------|
G|---------------------------------------------------------------|
D|-----6---9----------6---9----------9---12---------9---9--------|
A|--88---8---8-----88---8---8---/1111--11---11---1111--11-11-----|
E|--------------77-------------77-------------1010----------1212-|


Gtr 1&2                                      4xs
e|----------------------------------------------|
B|----------------------------------------------|
G|-4-5-/8----3----4-5-/8----4-5-/8----3----3----|
D|-3-4-/7----2----3-4-/7----3-4-/7----2----2----|
A|-2-3-/6----1----2-3-/6----2-3-/6----1----1----|
E|--------00---00--------00--------00---00---00-|

Gtr1
e|---------------------------------------------------------------|
B|---------------------------------------------------------------|
G|---------------------------------------------------------------|
D|-----3---6----------3---6----------6---9----------6---9--------|
A|--55---5---5-----55---5---5----/88---8---8-----88---8---8------|
E|--------------44-------------44-------------77------------77---|

Gtr2
e|---------------------------------------------------------------|
B|---------------------------------------------------------------|
G|---------------------------------------------------------------|
D|-----3---6----------3---6----------6---9----------6---9--------|
A|--55---5---5-----55---5---5----/88---8---8-----88---8---8------|
E|--------------44-------------44-------------77------------77---|

Gtr1
e|---------------------------------------------------------------|
B|---------------------------------------------------------------|
G|---------------------------------------------------------------|
D|-----3---6----------3---6----------6---9----------6---9--------|
A|--55---5---5-----55---5---5----/88---8---8-----88---8---8------|
E|--------------44-------------44-------------77------------77---|


e|---------------------------------------------------------------|
B|---------------------------------------------------------------|
G|---------------------------------------------------------------|
D|-----6---9----------6---9----------9---12---------9---9--------|
A|--88---8---8-----88---8---8---/1111--11---11---1111--11-11-----|
E|--------------77-------------77-------------1010----------1212-|


Gtr1
e|---------------------------------------------------------|
B|---------------------------------------------------------|
G|-9-\3--/10-\3---------------/9-\3--/10-\3----/14--17-16--|
D|---------------------------------------------------------|
A|-7-\1--/8--\1---------------/7-\1--/8--\1----/12--15-14--|
E|--------------0--0--00000000-----------------------------|

e|---------------------------------------------------------|
B|---------------------------------------------------------|
G|-12\6--/13-\6---------------/12\6--/13-\6----/14--17-16--|
D|---------------------------------------------------------|
A|-10\4--/11-\4---------------/10\4--/11-\4----/12--15-14--|
E|--------------0--0--00000000-----------------------------|

Gtr1 by itself
e|--0-----0-----0-----0-----0-----0-----0-----0------------|
B|--6-----6-----6-----6-----6-----6-----6-----6------------|
G|--8-----8-----8-----8-----8-----8-----8-----8--------- --|
D|--9-----9-----9-----9-----9-----9-----9-----9------------|
A|--7-----7-----7-----7-----7-----7-----7-----7------------|
E|---------------------------------------------------------|

Gtr1                                               
e|--0-----0-----0-----0-----0-----0-----0-----0--------|
B|--6-----6-----6-----6-----6-----6-----6-----6--------|
G|--8-----8-----8-----8-----8-----8-----8-----8--------|
D|--9-----9-----9-----9-----9-----9-----9-----9--------|
A|--7-----7-----7-----7-----7-----7-----7-----7--------|
E|-----------------------------------------------------|
 
Gtr2                                               
e|-----------------------------------------------------|
B|-----------------------------------------------------|
G|--9-----9-----9-----10-------------------------------|
D|--------------------------8-----8-----8-----11-------|
A|--7-----7-----7-----8--------------------------------|
E|--------------------------6-----6-----6-----9--------|

Gtr1 cont.                                           2xs
e|--0-----0-----0-----0-----0-----0-----0-----0--------|
B|--6-----6-----6-----6-----6-----6-----6-----6--------|
G|--8-----8-----8-----8-----8-----8-----8-----8--------|
D|--9-----9-----9-----9-----9-----9-----9-----9--------|
A|--7-----7-----7-----7-----7-----7-----7-----7--------|
E|-----------------------------------------------------|
 
Gtr2 cont.                                           2xs
e|--------------------------------------0-----0--------|
B|--------------------------------------0-----0--------|
G|--------------------------------------3-----3--------|
D|--3-----3-----3-----6-----2-----2--------------------|
A|--------------------------2-----2--------------------|
E|--1-----1-----1-----4-----0-----0--------------------|

Gtr1&2                                             4xs
e|--0-----0-----0-----0-----0-----0-----0-----0--------|
B|--6-----6-----6-----6-----6-----6-----6-----6--------|
G|--8-----8-----8-----8-----8-----8-----8-----8--------|
D|--9-----9-----9-----9-----9-----9-----9-----9--------|
A|--7-----7-----7-----7-----7-----7-----7-----7--------|
E|-----------------------------------------------------|
 
Gtr1                                               
e|--0-----0-----0-----0-----0-----0-----0-----0--------|
B|--6-----6-----6-----6-----6-----6-----6-----6--------|
G|--8-----8-----8-----8-----8-----8-----8-----8--------|
D|--9-----9-----9-----9-----9-----9-----9-----9--------|
A|--7-----7-----7-----7-----7-----7-----7-----7--------|
E|-----------------------------------------------------|
 
Gtr2                                               
e|-----------------------------------------------------|
B|-----------------------------------------------------|
G|--9-----9-----9-----10-------------------------------|
D|--------------------------8-----8-----8-----11-------|
A|--7-----7-----7-----8--------------------------------|
E|--------------------------6-----6-----6-----9--------|

Gtr1 cont.                                           2xs
e|--0-----0-----0-----0-----0-----0-----0-----0--------|
B|--6-----6-----6-----6-----6-----6-----6-----6--------|
G|--8-----8-----8-----8-----8-----8-----8-----8--------|
D|--9-----9-----9-----9-----9-----9-----9-----9--------|
A|--7-----7-----7-----7-----7-----7-----7-----7--------|
E|-----------------------------------------------------|
 
Gtr2 cont.                                           2xs
e|--------------------------------------0-----0--------|
B|--------------------------------------0-----0--------|
G|--------------------------------------3-----3--------|
D|--3-----3-----3-----6-----2-----2--------------------|
A|--------------------------2-----2--------------------|
E|--1-----1-----1-----4-----0-----0--------------------|

 GTr1 by itself            4xs
e|--------------0-------------|
B|-----------6-----6----------|
G|--------8-----------8-------|
D|-----9-----------------9----|
A|--7-------------------------|
E|----------------------------|

Gtr 1&2                                      4xs
e|----------------------------------------------|
B|----------------------------------------------|
G|-4-5-/8----3----4-5-/8----4-5-/8----3----3----|
D|-3-4-/7----2----3-4-/7----3-4-/7----2----2----|
A|-2-3-/6----1----2-3-/6----2-3-/6----1----1----|
E|--------00---00--------00--------00---00---00-|
Tap to rate this tab
 
# A B C D E F G H I J K L M N O P Q R S T U V W X Y Z