Song name
# A B C D E F G H I J K L M N O P Q R S T U V W X Y Z

Misc Unsigned Bands - Siadina - The Morning After tab

                               The Morning After                                   


Artist : Siadina
Music by : Siadina
Tab by : hardtail12 

Intro Riff:				
                         Dm9                                  
E||-------------------|-------------------|-------------------|
B||-------------------|--5----------------|--L----------------|
G||-------------------|--5----------------|--L----------------|
D||-------------------|--3----------------|--L----------------|
A||-------------------|--5----------------|--L----------------|
E||-------------------|-------------------|-------------------|


                                          |--3--|  3      |--3--|  3       
 Gm7 				 					 Am7
E||--3----------------|--L----------------|-----------5---------------5------|
B||--3----------------|--L----------------|-----------5---------------5------|
G||--3----------------|--L----------------|-----------5---------------5------|
D||--3----------------|--L----------------|----------------------------------|
A||--5----------------|--L----------------|--7--7--7---------7--7--7---------|
E||--3----------------|--L----------------|--5--5--5---------5--5--5---------|


  |--3--|  3      |--3--|  3                                               
									Gm7
E||-----------5---------------5------|--3----------------|--L----------------|
B||-----------5---------------5------|--3----------------|--L----------------|
G||-----------5---------------5------|--3----------------|--L----------------|
D||----------------------------------|--3----------------|--L----------------|
A||--7--7--7---------7--7--7---------|--5----------------|--L----------------|
E||--5--5--5---------5--5--5---------|--3----------------|--L----------------|


Verse Riff (2x):

  Dm9                                    Gm7                                   
E||-------------------|-------------------|--3----------------|--L----------------|
B||--5----------------|--L----------------|--3----------------|--L----------------|
G||--5----------------|--L----------------|--3----------------|--L----------------|
D||--3----------------|--L----------------|--3----------------|--L----------------|
A||--5----------------|--L----------------|--5----------------|--L----------------|
E||-------------------|-------------------|--3----------------|--L----------------|


  Am7                        			 Gm7
E||--5----------------|--L----------------|--3----------------|--L----------------|
B||--5----------------|--L----------------|--3----------------|--L----------------|
G||--5----------------|--L----------------|--3----------------|--L----------------|
D||--5----------------|--L----------------|--3----------------|--L----------------|
A||--7----------------|--L----------------|--5----------------|--L----------------|
E||--5----------------|--L----------------|--3----------------|--L----------------|

Chorus Riff (2x):

  Dm9                                    Gm7                                   
E||-------------------|-------------------|--3----------------|--L----------------|
B||--5----------------|--L----------------|--3----------------|--L----------------|
G||--5----------------|--L----------------|--3----------------|--L----------------|
D||--3----------------|--L----------------|--3----------------|--L----------------|
A||--5----------------|--L----------------|--5----------------|--L----------------|
E||-------------------|-------------------|--3----------------|--L----------------|


Breakdown Riff:

E||-----------------------------------|---------------------------------|
B||-----------------------------------|---------------------------------|
G||-----7--5h-7-----------------------|-----7--5h-7---10--10-7-10--7--L-|
D||---------------6---5---3-----------|---------------------------------|
A||--5------------------------5p-3-4h-|--5------------------------------|
E||-----------------------------------|---------------------------------|


E||--------------------------|---------------------------|
B||--------------------------|---------------------------|
G||--------------------------|--------------------3-5----|
D||-----5--3--5--------------|-----5--3--5--3--5------5--|
A||--------------5--4--3--1--|---------------------------|
E||--3-----------------------|--3------------------------|


E||-----------------------------------|---------------------------------|
B||-----------------------------------|---------------------------------|
G||-----7--5h-7-----------------------|-----7--5h-7---10--10-7-10--7--L-|
D||---------------6---5---3-----------|---------------------------------|
A||--5------------------------5p-3-4h-|--5------------------------------|
E||-----------------------------------|---------------------------------|


E||--------------------------|---------------------------|
B||--------------------------|---------------------------|                     
G||--------------------------|--------------------3-5----|
D||-----5--3--5--------------|-----5--3--5--3--5------5--|
A||--------------5--4--3--1--|---------------------------|
E||--3-----------------------|--3------------------------|	


Chorus 1x

"Don't tell me you want me..." part (repeat Chorus riff 2x)

Ending (Intro 1x)




Duration Legend
---------------
W - whole
H - half
Q - quarter
E - 8th
S - 16th
T - 32nd
X - 64th
. - note dotted
|-n-|  - n-tuplets


Tablature Legend
----------------
L - tied note
x - dead note
g - grace note
(n) - ghost note
> - accentuded note
NH - natural harmonic
AH - artificial harmonic
TH - tapped harmonic
SH - semi harmonic
PH - pitch harmonic
h - hammer on
p - pull off
b - bend
br - bendRelease
pb - preBend
pbr - preBendRelease
brb - bendReleaseBend
\n/ - tremolo bar dip
\n - tremolo bar dive
-/n - tremolo bar Release up
/n\ - tremolo bar inverted dip
/n - tremolo bar return
-\n - tremolo bar Release down
S - shift slide
s - legato slide
/ -  slide into from below or out of upwards
\ -  slide into from above or out of downwards
~ - vibrato
W - wide vibrato
tr - trill
TP - tremolo picking
T - tapping
S - slap
P - pop
< - fade in
^ - brush up
v - brush down
Tap to rate this tab
 
# A B C D E F G H I J K L M N O P Q R S T U V W X Y Z