Misc Unsigned Bands - Powerslave - Maidens Of Death tab

Maidens Of Death - Powerslave
2011 Tuning EADGBe

Intro: Using Capo in the 3th fret with distortion and then the clean part:

e|-3---|
B|-3---|
G|-3---| With Distortion
A|-5---|
D|-5---|
E|-3---|
 
Riff A: 2 times the clean part
When you do the second time you repeat only 1 time the part 1. and then the 2.  

1.Part
e|---------------------------------|
B|---------------------------------|
G|---3---3----3---3---3---3---3----| Repeat this part 3 times and then:
A|----5---5----5---5---5---5---5---|
D|--5---5----4---4---3---3---3-----|
E|-3---3----3---3---3---3---3------|

2.Part
e|---3---3---3--|
B|----3---3--3--|
G|-----------3--|
A|--5---5----5--|
D|-----------5--|
E|-5---4-----3--|

The second clean part 2 times (still capo in that fret)

e|-------3-------------------------3------|
B|---3--------3---3---3-----------3-3-----|
G|----3---3----3---3---3---------3---3----|
A|--9---7----5---5---5----5-3---5---------|
D|-7---5----3---3---3----------5----------|
E|-----------------------7-5--3-----------|
Tap to rate this tab
 
# A B C D E F G H I J K L M N O P Q R S T U V W X Y Z