Song name
# A B C D E F G H I J K L M N O P Q R S T U V W X Y Z

Misc Unsigned Bands - Eighthdeadlysin - Angel tab

Angel writen By EighthDeadlySin
 Copywrited

This is The Rhythm Guitar Tabs.

Played in Drop D

Intro

E -----------------------------------------------------------------|
B -----------------------------------------------------------------|
G -0-0-0-0-0-0-0-0-8-8-8-8-8-8-8-8-7-7-7-7-7-7-7-7-5-5-5-5-5-5-5-5-|
D -0-0-0-0-0-0-0-0-8-8-8-8-8-8-8-8-7-7-7-7-7-7-7-7-5-5-5-5-5-5-5-5-|
A -0-0-0-0-0-0-0-0-8-8-8-8-8-8-8-8-7-7-7-7-7-7-7-7-5-5-5-5-5-5-5-5-|
D -0-0-0-0-0-0-0-0-8-8-8-8-8-8-8-8-7-7-7-7-7-7-7-7-5-5-5-5-5-5-5-5-|


E -----------------------------------------------------------------|
B -----------------------------------------------------------------|
G -0-0-0-0-0-0-0-0-8-8-8-8-8-8-8-8-7-7-7-7-7-7-7-7-5-5-5-5-5-7-5-7-|
D -0-0-0-0-0-0-0-0-8-8-8-8-8-8-8-8-7-7-7-7-7-7-7-7-5-5-5-5-5-7-5-7-|
A -0-0-0-0-0-0-0-0-8-8-8-8-8-8-8-8-7-7-7-7-7-7-7-7-5-5-5-5-5-7-5-7-|
D -0-0-0-0-0-0-0-0-8-8-8-8-8-8-8-8-7-7-7-7-7-7-7-7-5-5-5-5-5-7-5-7-|

Do the above 8 time 4 times with wah then 4 with out.

Pre Verse
E ---------------------------------|
B ---------------------------------|
G -0---------------0---------------|
D -0---------------0---------------|
A -0---------------0---------------|
D -0---------------0---------------|

Verse

E ----------------------------------------------------------------|
B ----------------------------------------------------------------|
G -0---------------8---------------7--------------5---------------|
D -0---------------8---------------7--------------5---------------|
A -0---------------8---------------7--------------5---------------|
D -0---------------8---------------7--------------5---------------|

Do the above 4 times

Chorous

E -----------------------------------------------------------------|
B -----------------------------------------------------------------|
G -0-0-0-0-0-0-0-0-8-8-8-8-8-8-8-8-7-7-7-7-7-7-7-7-5-5-5-5-5-5-5-5-|
D -0-0-0-0-0-0-0-0-8-8-8-8-8-8-8-8-7-7-7-7-7-7-7-7-5-5-5-5-5-5-5-5-|
A -0-0-0-0-0-0-0-0-8-8-8-8-8-8-8-8-7-7-7-7-7-7-7-7-5-5-5-5-5-5-5-5-|
D -0-0-0-0-0-0-0-0-8-8-8-8-8-8-8-8-7-7-7-7-7-7-7-7-5-5-5-5-5-5-5-5-|


E -----------------------------------------------------------------|
B -----------------------------------------------------------------|
G -0-0-0-0-0-0-0-0-8-8-8-8-8-8-8-8-7-7-7-7-7-7-7-7-5-5-5-5-5-7-5-7-|
D -0-0-0-0-0-0-0-0-8-8-8-8-8-8-8-8-7-7-7-7-7-7-7-7-5-5-5-5-5-7-5-7-|
A -0-0-0-0-0-0-0-0-8-8-8-8-8-8-8-8-7-7-7-7-7-7-7-7-5-5-5-5-5-7-5-7-|
D -0-0-0-0-0-0-0-0-8-8-8-8-8-8-8-8-7-7-7-7-7-7-7-7-5-5-5-5-5-7-5-7-|

Do 4 times

Pre Verse
E ---------------------------------|
B ---------------------------------|
G -0---------------0---------------|
D -0---------------0---------------|
A -0---------------0---------------|
D -0---------------0---------------|

Verse

E ----------------------------------------------------------------|
B ----------------------------------------------------------------|
G -0---------------8---------------7--------------5---------------|
D -0---------------8---------------7--------------5---------------|
A -0---------------8---------------7--------------5---------------|
D -0---------------8---------------7--------------5---------------|

Do the above 4 times

Chorous

E -----------------------------------------------------------------|
B -----------------------------------------------------------------|
G -0-0-0-0-0-0-0-0-8-8-8-8-8-8-8-8-7-7-7-7-7-7-7-7-5-5-5-5-5-5-5-5-|
D -0-0-0-0-0-0-0-0-8-8-8-8-8-8-8-8-7-7-7-7-7-7-7-7-5-5-5-5-5-5-5-5-|
A -0-0-0-0-0-0-0-0-8-8-8-8-8-8-8-8-7-7-7-7-7-7-7-7-5-5-5-5-5-5-5-5-|
D -0-0-0-0-0-0-0-0-8-8-8-8-8-8-8-8-7-7-7-7-7-7-7-7-5-5-5-5-5-5-5-5-|


E -----------------------------------------------------------------|
B -----------------------------------------------------------------|
G -0-0-0-0-0-0-0-0-8-8-8-8-8-8-8-8-7-7-7-7-7-7-7-7-5-5-5-5-5-7-5-7-|
D -0-0-0-0-0-0-0-0-8-8-8-8-8-8-8-8-7-7-7-7-7-7-7-7-5-5-5-5-5-7-5-7-|
A -0-0-0-0-0-0-0-0-8-8-8-8-8-8-8-8-7-7-7-7-7-7-7-7-5-5-5-5-5-7-5-7-|
D -0-0-0-0-0-0-0-0-8-8-8-8-8-8-8-8-7-7-7-7-7-7-7-7-5-5-5-5-5-7-5-7-|

Do 4 times

Pre Verse
E ---------------------------------|
B ---------------------------------|
G -0---------------0---------------|
D -0---------------0---------------|
A -0---------------0---------------|
D -0---------------0---------------|

Break down

E -----------------------------------------------------------------|
B -----------------------------------------------------------------|
G -0-0-0-0-0-0-0-0-0-0-0-0-0-0-8787--------------------------------|
D -0-0-0-0-0-0-0-0-0-0-0-0-0-0-8787--------------------------------|
A -0-0-0-0-0-0-0-0-0-0-0-0-0-0-8787--------------------------------|
D -0-0-0-0-0-0-0-0-0-0-0-0-0-0-8787--------------------------------|

this played 8 times


drums stop

E ----------------------------------------------------------------|
B ----------------------------------------------------------------|
G -0---------------8---------------7--------------5---------------|
D -0---------------8---------------7--------------5---------------|
A -0---------------8---------------7--------------5---------------|
D -0---------------8---------------7--------------5---------------|

played 4 times

Chorous

E -----------------------------------------------------------------|
B -----------------------------------------------------------------|
G -0-0-0-0-0-0-0-0-8-8-8-8-8-8-8-8-7-7-7-7-7-7-7-7-5-5-5-5-5-5-5-5-|
D -0-0-0-0-0-0-0-0-8-8-8-8-8-8-8-8-7-7-7-7-7-7-7-7-5-5-5-5-5-5-5-5-|
A -0-0-0-0-0-0-0-0-8-8-8-8-8-8-8-8-7-7-7-7-7-7-7-7-5-5-5-5-5-5-5-5-|
D -0-0-0-0-0-0-0-0-8-8-8-8-8-8-8-8-7-7-7-7-7-7-7-7-5-5-5-5-5-5-5-5-|


E -----------------------------------------------------------------|
B -----------------------------------------------------------------|
G -0-0-0-0-0-0-0-0-8-8-8-8-8-8-8-8-7-7-7-7-7-7-7-7-5-5-5-5-5-7-5-7-|
D -0-0-0-0-0-0-0-0-8-8-8-8-8-8-8-8-7-7-7-7-7-7-7-7-5-5-5-5-5-7-5-7-|
A -0-0-0-0-0-0-0-0-8-8-8-8-8-8-8-8-7-7-7-7-7-7-7-7-5-5-5-5-5-7-5-7-|
D -0-0-0-0-0-0-0-0-8-8-8-8-8-8-8-8-7-7-7-7-7-7-7-7-5-5-5-5-5-7-5-7-|

Do 4 times
Tap to rate this tab
 
# A B C D E F G H I J K L M N O P Q R S T U V W X Y Z