Misc Unsigned Bands - Plan 9 - Suffocate tab

Tuning: Drop Bb (Bb-F-Bb-Eb-G-C)

Intro:(Both Guitars)
C|----------------------------------------------|
G|----------------------------------------------|
Eb|---------------------------------------------|
Bb|-----0*-0*-1-0-1-4---------------------------|
F|------0*-0*-1-0-1-4---------------------------|
Bb|-----0*-0*-1-0-1-4---------------------------|

C|----------------------------------------------|
G|----------------------------------------------|
Eb|---------------------------------------------|
Bb|-----0*-0*-1-0-1-4---------------------------|
F|------0*-0*-1-0-1-4---------------------------|
Bb|-----0*-0*-1-0-1-4---------------------------|

C|----------------------------------------------|
G|----------------------------------------------|
Eb|---------------------------------------------|
Bb|-----0*-0*-1-0-1-4---------------------------|
F|------0*-0*-1-0-1-4---------------------------|
Bb|-----0*-0*-1-0-1-4---------------------------|

C|--------------------------------------------|
G|--------------------------------------------|
Eb|-------------------------------------------|
Bb|-----0*-0*-1-0-0----8-0-8------------------|
F|------0*-0*-1-0-0----8-0-8------------------|
Bb|-----0*-0*-1-0-0----8-0-8------------------|

C|----------------------------------------------|
G|----------------------------------------------|
Eb|---------------------------------------------|
Bb|-----0*-0*-1-0-1-4---------------------------|
F|------0*-0*-1-0-1-4---------------------------|
Bb|-----0*-0*-1-0-1-4---------------------------|

C|----------------------------------------------|
G|----------------------------------------------|
Eb|---------------------------------------------|
Bb|-----0*-0*-1-0-1-4---------------------------|
F|------0*-0*-1-0-1-4---------------------------|
Bb|-----0*-0*-1-0-1-4---------------------------|

C|----------------------------------------------|
G|----------------------------------------------|
Eb|---------------------------------------------|
Bb|-----0*-0*-1-0-1-4---------------------------|
F|------0*-0*-1-0-1-4---------------------------|
Bb|-----0*-0*-1-0-1-4---------------------------|

C|--------------------------------------------|
G|--------------------------------------------|
Eb|-------------------------------------------|
Bb|-----0*-0*-1-0-0----8-0-8------------------|
F|------0*-0*-1-0-0----8-0-8------------------|
Bb|-----0*-0*-1-0-0----8-0-8------------------|

Verse 1: (Palm Muted)
C|-----------------------------------------------------------|
G|-----------------------------------------------------------|
Eb|----------------------------------------------------------|
Bb|-----0-0-0-0-0-0-0-0---5-5-5-5-5-5-5----1-1-1-1-1-1-1-----|
F|------0-0-0-0-0-0-0-0---5-5-5-5-5-5-5----1-1-1-1-1-1-1-----|
Bb|-----0-0-0-0-0-0-0-0---5-5-5-5-5-5-5----1-1-1-1-1-1-1-----|
       pm . . . . . . .   . . . . . . .    . . . . . . .

Verse 1: (Palm Muted)[Rhythm Guitar]
C|-------------------------------------------------------------|
G|-------------------------------------------------------------|
Eb|------------------------------------------------------------|
Bb|-----0-0-0-0-0-0-0-0---5-5-5-5-5-5-5----1*-0-1*-1*----------|
F|------0-0-0-0-0-0-0-0---5-5-5-5-5-5-5----1*-0-1*-1*----------|
Bb|-----0-0-0-0-0-0-0-0---5-5-5-5-5-5-5----1*-0-1*-1*----------| 
        pm. . . . . . . . . . . . . . . . . . . . . .         

Verse 1: (Palm Muted)
C|-----------------------------------------------------------|
G|-----------------------------------------------------------|
Eb|----------------------------------------------------------|
Bb|-----0-0-0-0-0-0-0-0---5-5-5-5-5-5-5----1-1-1-1-1-1-1-----|
F|------0-0-0-0-0-0-0-0---5-5-5-5-5-5-5----1-1-1-1-1-1-1-----|
Bb|-----0-0-0-0-0-0-0-0---5-5-5-5-5-5-5----1-1-1-1-1-1-1-----|
       pm . . . . . . .   . . . . . . .    . . . . . . .

C|-------------------------------------------------------------|
G|-------------------------------------------------------------|
Eb|------------------------------------------------------------|
Bb|-----0-0-0-0-0-0-0-0---5-5-5-5-5-5-5----1*-0-1*-1*---0------|
F|------0-0-0-0-0-0-0-0---5-5-5-5-5-5-5----1*-0-1*-1*---0------|
Bb|-----0-0-0-0-0-0-0-0---5-5-5-5-5-5-5----1*-0-1*-1*---0------| 
        pm. . . . . . . . . . . . . . . . . . . . . .         

Chorus: (Rhythm Guitar)
C|---------------------------------------------|
G|---------------------------------------------|
Eb|--------------------------------------------|
Bb|-----0----1---0-1--7-6----------------------|
F|------0----1---0-1--7-6----------------------|
Bb|-----0----1---0-1--7-6----------------------|

C|-----------------------------------------------|
G|-----------------------------------------------|
Eb|----------------------------------------------|
Bb|-----0----1---0-1--4--------------------------|
F|------0----1---0-1--4--------------------------|
Bb|-----0----1---0-1--4--------------------------|

C|----------------------------------------------|
G|----------------------------------------------|
Eb|---------------------------------------------|
Bb|-----0----1---0-1--7-6-----------------------|
F|------0----1---0-1--7-6-----------------------|
Bb|-----0----1---0-1--7-6-----------------------|

C|----------------------------------------------|
G|--------------------7-------------------------|
Eb|-------------------6-------------------------|
Bb|-----0----1---0-1--4------x-x----------------|
F|------0----1---0-1--4------x-x----------------|
Bb|-----0----1---0-1--4------x-x----------------|

Chorus: (Lead Guitar)
C|---------------------------------------------|
G|---------------------------------------------|
Eb|-----11---12--11-12--14-13------------------|
Bb|-----x----x---x--x---x--x-------------------|
F|------9----10--9--10--12-11------------------|
Bb|-----0----0---0--0---0--0-------------------|

C|---------------------------------------------|
G|---------------------------------------------|
Eb|-----11---12--11-12--8----------------------|
Bb|-----x----x---x--x---x----------------------|
F|------9----10--9--10--6----------------------|
Bb|-----0----0---0--0---0----------------------|

C|---------------------------------------------|
G|---------------------------------------------|
Eb|-----11---12--11-12--14-13------------------|
Bb|-----x----x---x--x---x--x-------------------|
F|------9----10--9--10--12-11------------------|
Bb|-----0----0---0--0---0--0-------------------|

C|---------------------------------------------|
G|---------------------------------------------|
Eb|-----11---12--11-12--8----------------------|
Bb|-----x----x---x--x---x------x-x-------------|
F|------9----10--9--10--6------x-x-------------|
Bb|-----0----0---0--0---0------x-x-------------|


Intro:(Lead Guitar)
C|----------------------------------------------|
G|----------------------------------------------|
Eb|---------------------------------------------|
Bb|-----0*-0*-1-0-1-4---------------------------|
F|------0*-0*-1-0-1-4---------------------------|
Bb|-----0*-0*-1-0-1-4---------------------------|

C|----------------------------------------------|
G|----------------------------------------------|
Eb|---------------------------------------------|
Bb|-----0*-0*-1-0-1-4---------------------------|
F|------0*-0*-1-0-1-4---------------------------|
Bb|-----0*-0*-1-0-1-4---------------------------|

C|----------------------------------------------|
G|----------------------------------------------|
Eb|---------------------------------------------|
Bb|-----0*-0*-1-0-1-4---------------------------|
F|------0*-0*-1-0-1-4---------------------------|
Bb|-----0*-0*-1-0-1-4---------------------------|

C|--------------------------------------------|
G|--------------------------------------------|
Eb|-------------------------------------------|
Bb|-----0*-0*-1-0-0----8-0-8---x-x------------|
F|------0*-0*-1-0-0----8-0-8---x-x------------|
Bb|-----0*-0*-1-0-0----8-0-8---x-x------------|

Intro:(Rhythm Guitar) [Strummed]
C|--------------------------------------------|
G|------7-------------4-------7---------------|
Eb|-----x-------7-----x-------x-<-------------|<- Let ring into 2nd verse
Bb|-----4-------x-----1-------4---------------|
F|--------------5-----------------------------|
Bb|-------------0-----------------------------|

Verse 2: (Palm Muted)[Rhythm Guitar]
C|-----------------------------------------------------------|
G|-----------------------------------------------------------|
Eb|----------------------------------------------------------|
Bb|-----0-0-0-0-0-0-0-0---5-5-5-5-5-5-5----1-1-1-1-1-1-1-----|
F|------0-0-0-0-0-0-0-0---5-5-5-5-5-5-5----1-1-1-1-1-1-1-----|
Bb|-----0-0-0-0-0-0-0-0---5-5-5-5-5-5-5----1-1-1-1-1-1-1-----|
       pm . . . . . . .   . . . . . . .    . . . . . . .

Verse 2: (Palm Muted)
C|-------------------------------------------------------------|
G|-------------------------------------------------------------|
Eb|------------------------------------------------------------|
Bb|-----0-0-0-0-0-0-0-0---5-5-5-5-5-5-5----1*-0-1*-1*----------|
F|------0-0-0-0-0-0-0-0---5-5-5-5-5-5-5----1*-0-1*-1*----------|
Bb|-----0-0-0-0-0-0-0-0---5-5-5-5-5-5-5----1*-0-1*-1*----------| 
        pm. . . . . . . . . . . . . . . . . . . . . .         

Verse 2: (Palm Muted)
C|-----------------------------------------------------------|
G|-----------------------------------------------------------|
Eb|----------------------------------------------------------|
Bb|-----0-0-0-0-0-0-0-0---5-5-5-5-5-5-5----1-1-1-1-1-1-1-----|
F|------0-0-0-0-0-0-0-0---5-5-5-5-5-5-5----1-1-1-1-1-1-1-----|
Bb|-----0-0-0-0-0-0-0-0---5-5-5-5-5-5-5----1-1-1-1-1-1-1-----|
       pm . . . . . . .   . . . . . . .    . . . . . . .

C|-------------------------------------------------------------|
G|-------------------------------------------------------------|
Eb|------------------------------------------------------------|
Bb|-----0-0-0-0-0-0-0-0---5-5-5-5-5-5-5----1*-0-1*-1*---0------|
F|------0-0-0-0-0-0-0-0---5-5-5-5-5-5-5----1*-0-1*-1*---0------|
Bb|-----0-0-0-0-0-0-0-0---5-5-5-5-5-5-5----1*-0-1*-1*---0------| 
        pm. . . . . . . . . . . . . . . . . . . . . .         

Chorus: (Rhythm Guitar)
C|---------------------------------------------|
G|---------------------------------------------|
Eb|--------------------------------------------|
Bb|-----0----1---0-1--7-6----------------------|
F|------0----1---0-1--7-6----------------------|
Bb|-----0----1---0-1--7-6----------------------|

C|-----------------------------------------------|
G|-----------------------------------------------|
Eb|----------------------------------------------|
Bb|-----0----1---0-1--4--------------------------|
F|------0----1---0-1--4--------------------------|
Bb|-----0----1---0-1--4--------------------------|

C|----------------------------------------------|
G|----------------------------------------------|
Eb|---------------------------------------------|
Bb|-----0----1---0-1--7-6-----------------------|
F|------0----1---0-1--7-6-----------------------|
Bb|-----0----1---0-1--7-6-----------------------|

C|----------------------------------------------|
G|--------------------7-------------------------|
Eb|-------------------6-------------------------|
Bb|-----0----1---0-1--4------x-x----------------|
F|------0----1---0-1--4------x-x----------------|
Bb|-----0----1---0-1--4------x-x----------------|

Chorus: (Lead Guitar)
C|---------------------------------------------|
G|---------------------------------------------|
Eb|-----11---12--11-12--14-13------------------|
Bb|-----x----x---x--x---x--x-------------------|
F|------9----10--9--10--12-11------------------|
Bb|-----0----0---0--0---0--0-------------------|

C|---------------------------------------------|
G|---------------------------------------------|
Eb|-----11---12--11-12--8----------------------|
Bb|-----x----x---x--x---x----------------------|
F|------9----10--9--10--6----------------------|
Bb|-----0----0---0--0---0----------------------|

C|---------------------------------------------|
G|---------------------------------------------|
Eb|-----11---12--11-12--14-13------------------|
Bb|-----x----x---x--x---x--x-------------------|
F|------9----10--9--10--12-11------------------|
Bb|-----0----0---0--0---0--0-------------------|

C|---------------------------------------------|
G|---------------------------------------------|
Eb|-----11---12--11-12--8----------------------|
Bb|-----x----x---x--x---x------x-x-------------|
F|------9----10--9--10--6------x-x-------------|
Bb|-----0----0---0--0---0------x-x-------------|


Bridge:(Both Guitars)
C|----------------------------------------|
G|----------------------------------------|
Eb|---------------------------------------|
Bb|-----7--6--5--6--5--6------------------|
F|------7--6--5--6--5--6------------------|
Bb|-----7--6--5--6--5--6------------------|

C|----------------------------------------|
G|----------------------------------------|
Eb|---------------------------------------|
Bb|-----7--6--5--6--5--6------------------|
F|------7--6--5--6--5--6------------------|
Bb|-----7--6--5--6--5--6------------------|

C|----------------------------------------|
G|----------------------------------------|
Eb|---------------------------------------|
Bb|-----7--6--5--6--5--6------------------|
F|------7--6--5--6--5--6------------------|
Bb|-----7--6--5--6--5--6------------------|

C|---------------------------------|
G|---------------------------------|
Eb|--------------------------------|
Bb|---1-0-1-0-1-0-0-0-0------------|
F|----1-0-1-0-1-0-0-0-0------------|
Bb|---1-0-1-0-1-0-0-0-0------------|
     pm. . . . . . . .  

Bridge Continued:
C|------------------------------------|
G|------------------------------------|
Eb|-----------------------------------|
Bb|-----0-0-0-0-1-0-0-0-0-0-1---------|
F|------0-0-0-0-1-0-0-0-0-0-1---------|
Bb|-----0-0-0-0-1-0-0-0-0-0-1---------|
        pm. . . . . . . . . .  

C|------------------------------------|
G|------------------------------------|
Eb|-------------------------2---------|
Bb|-----0-0-0-0-1-0-0-0-0-0-1---------|
F|------0-0-0-0-1-0-0-0-0-0-1---------|
Bb|-----0-0-0-0-1-0-0-0-0-0-1---------|
        pm. . . . . . . . . .  

C|------------------------------------|
G|------------------------------------|
Eb|-----------------------------------|
Bb|-----0-0-0-0-1-0-0-0-0-0-1---------|
F|------0-0-0-0-1-0-0-0-0-0-1---------|
Bb|-----0-0-0-0-1-0-0-0-0-0-1---------|
        pm. . . . . . . . . .  

C|-----------------------------------|
G|-----------------------------------|
Eb|----------------------------------|
Bb|-----0-0-0-0-1-0-0-0-0-0-1-0------|
F|------0-0-0-0-1-0-0-0-0-0-1-0------|
Bb|-----0-0-0-0-1-0-0-0-0-0-1-0------|
        pm. . . . . . . . . . .  

C|---------------------------------|
G|---------------------------------|
Eb|--------5*----------------------| <- Harmonic (let ring)
Bb|--------------------------------|
F|---------0-----------------------|
Bb|--------0-----------------------|

C|---------------------------|
G|---------------------------|
Eb|--------------------------|
Bb|-----7--6--5--x-----------|
F|------7--6--5--x-----------|
Bb|-----7--6--5--x-----------|

Chorus: (Rhythm Guitar)
C|---------------------------------------------|
G|---------------------------------------------|
Eb|--------------------------------------------|
Bb|-----0----1---0-1--7-6----------------------|
F|------0----1---0-1--7-6----------------------|
Bb|-----0----1---0-1--7-6----------------------|

C|-----------------------------------------------|
G|-----------------------------------------------|
Eb|----------------------------------------------|
Bb|-----0----1---0-1--4--------------------------|
F|------0----1---0-1--4--------------------------|
Bb|-----0----1---0-1--4--------------------------|

C|----------------------------------------------|
G|----------------------------------------------|
Eb|---------------------------------------------|
Bb|-----0----1---0-1--7-6-----------------------|
F|------0----1---0-1--7-6-----------------------|
Bb|-----0----1---0-1--7-6-----------------------|

C|----------------------------------------------|
G|--------------------7-------------------------|
Eb|-------------------6-------------------------|
Bb|-----0----1---0-1--4------x-x----------------|
F|------0----1---0-1--4------x-x----------------|
Bb|-----0----1---0-1--4------x-x----------------|

Chorus: (Lead Guitar)
C|---------------------------------------------|
G|---------------------------------------------|
Eb|-----11---12--11-12--14-13------------------|
Bb|-----x----x---x--x---x--x-------------------|
F|------9----10--9--10--12-11------------------|
Bb|-----0----0---0--0---0--0-------------------|

C|---------------------------------------------|
G|---------------------------------------------|
Eb|-----11---12--11-12--8----------------------|
Bb|-----x----x---x--x---x----------------------|
F|------9----10--9--10--6----------------------|
Bb|-----0----0---0--0---0----------------------|

C|---------------------------------------------|
G|---------------------------------------------|
Eb|-----11---12--11-12--14-13------------------|
Bb|-----x----x---x--x---x--x-------------------|
F|------9----10--9--10--12-11------------------|
Bb|-----0----0---0--0---0--0-------------------|

C|---------------------------------------------|
G|---------------------------------------------|
Eb|-----11---12--11-12--8----------------------|
Bb|-----x----x---x--x---x------x-x-------------|
F|------9----10--9--10--6------x-x-------------|
Bb|-----0----0---0--0---0------x-x-------------|

Intro:(Both Guitars)
C|----------------------------------------------|
G|----------------------------------------------|
Eb|---------------------------------------------|
Bb|-----0*-0*-1-0-1-4---------------------------|
F|------0*-0*-1-0-1-4---------------------------|
Bb|-----0*-0*-1-0-1-4---------------------------|

C|----------------------------------------------|
G|----------------------------------------------|
Eb|---------------------------------------------|
Bb|-----0*-0*-1-0-1-4---------------------------|
F|------0*-0*-1-0-1-4---------------------------|
Bb|-----0*-0*-1-0-1-4---------------------------|

C|----------------------------------------------|
G|----------------------------------------------|
Eb|---------------------------------------------|
Bb|-----0*-0*-1-0-1-4---------------------------|
F|------0*-0*-1-0-1-4---------------------------|
Bb|-----0*-0*-1-0-1-4---------------------------|

C|--------------------------------------------|
G|--------------------------------------------|
Eb|-------------------------------------------|
Bb|-----0*-0*-1-0-0----8-0-8------------------|
F|------0*-0*-1-0-0----8-0-8------------------|
Bb|-----0*-0*-1-0-0----8-0-8------------------|

C|----------------------------------------------|
G|----------------------------------------------|
Eb|---------------------------------------------|
Bb|-----0*-0*-1-0-1-4---------------------------|
F|------0*-0*-1-0-1-4---------------------------|
Bb|-----0*-0*-1-0-1-4---------------------------|

C|----------------------------------------------|
G|----------------------------------------------|
Eb|---------------------------------------------|
Bb|-----0*-0*-1-0-1-4---------------------------|
F|------0*-0*-1-0-1-4---------------------------|
Bb|-----0*-0*-1-0-1-4---------------------------|

C|----------------------------------------------|
G|----------------------------------------------|
Eb|---------------------------------------------|
Bb|-----0*-0*-1-0-1-4---------------------------|
F|------0*-0*-1-0-1-4---------------------------|
Bb|-----0*-0*-1-0-1-4---------------------------|

C|---------------------------------|
G|---------------------------------|
Eb|--------------------------------|
Bb|-----0*-------------------------|
F|------0*-------------------------|
Bb|-----0*-------------------------|
Tap to rate this tab
 
# A B C D E F G H I J K L M N O P Q R S T U V W X Y Z