Song name
# A B C D E F G H I J K L M N O P Q R S T U V W X Y Z

Misc Unsigned Bands - Hot Bodies In Motion - 15-8 tab

---------------------------------------------------------------------------
		             15-8 by Hot Bodies in Motion
---------------------------------------------------------------------------
This song is pretty simple with a few tricky things in the middle.

Capo 2nd Fret.

Verse:
e|-0-----0--------|
B|-3-----3--------|
G|-0-----0--------|
D|-4-----4--------|
A|-5-----5--------|
E|-5-----x--------|

Pre-Chorus:
e|-0-----0-------------------------------|-0-----0--------|
B|-0-----3-----2-----3----3-----3--------|-3-----3--------|
G|-0-----2-----1-----2----4-----4--------|-0-----0--------|
D|-2-----0-----2-----4----4-----4--------|-4-----4--------|
A|-2-----x-----1-----2----x-----x--------|-5-----5--------|
E|-0-----2----------------4-----3--------|-5-----x--------|

Chorus: 
e|-3----3---------------------------------0------|
B|-2----3---------------3-----------------0------|
G|-3---------7---6---4--0----7---6--------0------|
D|----------------------4-----------------2------|
A|----------------------------------------2------|
E|---2--3----7---5---3--3----7---5--3--2--0------|

"But dear I fear..."
e|--------------------------|
B|-------3--------3---3-----|
G|----------------0---3-----|
D|--------------------------|
A|--------------------------|
E|-0--2--3--0--2--3---3-----|
Tap to rate this tab
 
# A B C D E F G H I J K L M N O P Q R S T U V W X Y Z