Song name
# A B C D E F G H I J K L M N O P Q R S T U V W X Y Z

Misc Unsigned Bands - Low Altitude Sickness - Raise An Objection tab

-------------------------------------------------------------------------------
			     RAISE AN OBJECTION - Low Altitude Sickness
-------------------------------------------------------------------------------
Guitar Written & Tabbed by: Henry
Lyrics Written by: Henry
Email: smallandmighty@live.co.uk

Tuning: standard (EADGBe)
Played with light distortion
(Lyrics included)

intro: (x2)

e|----------------|----------------|----------------|----------------|
B|----------------|----------------|----------------|----------------|
G|----------------|----------------|----------------|----------------|
D|----------------|----------------|----------------|----------------|
A|-2-2-2-2-7-7-9-9|1111111111111111|-2-2-2-2-7-7-9-9|1111111111111111|
E|-0-0-0-0-0-0-0-0|-0-0-0-0-0-0-0-0|-0-0-0-0-0-0-0-0|-0-0-0-0-0-0-0-0|

e|----------------|----------------|----------------|----------------|
B|----------------|----------------|----------------|----------------|
G|----------------|----------------|----------------|----------------|
D|-9p7-----7p5----|-2-2-2-2-2-2-2-2|-9p7----7p5-----|-2-2-2-2-2-2-2-2|
A|----------------|----------------|-7------5-------|-0-0-0-0-0-0-0-0|
E|----------------|----------------|----------------|----------------|

verse 1:

e|----------------|----------------|----------------|----------------|
B|----------------|----------------|----------------|----------------|
G|----------------|----------------|----------------|----------------|
D|---5-5-5---5-5-5|---5-5-5---5-5-5|---7-7-7---7-7-7|---7-7-7---7-7-7|
A|-6-6-6-6-6-6-6-6|-6-6-6-6-6-6-6-6|-7-7-7-7-7-7-7-7|-7-7-7-7-7-7-7-7|
E|-6-------6------|-6-------6------|-5-------5------|-5-------5------|

prechorus 1:

e|----------------|----------------|----------------|----------------|
B|----------------|----------------|----------------|----------------|
G|-----------4-0--|-----------6-0--|-----------4-0--|-----------2-0--|
D|-5-5-5-5-5------|-7-7-7-7-7------|-5-5-5-5-5------|-3-3-3-3-3------|
A|----------------|----------------|----------------|----------------|
E|----------------|----------------|----------------|----------------|

chorus 1:

e|----------------|----------------|----------------|----------------|
B|----------------|----------------|----------------|----------------|
G|-5---5---5-5----|---------9-9-8-8|-5---5---5-5----|---------9-9-8-8|
D|-5---5---5-5-6--|-6---666-9-9-9-9|-5---5---5-5-6--|-6---6-6-9-9-9-9|
A|-3---3---3-3-6--|-6---666-7-7-6-6|-3---3---3-3-6--|-6---6-6-7-7-6-6|
E|-------------4--|-4---444--------|-------------4--|-4---4-4--------|

e|----------------|----------------|----------------|----------------|
B|----------------|----------------|----------------|----------------|
G|-8-8---8-8-8-8-8|----------------|----------------|----------------|
D|-9-9---9-9-9-9-9|-6---6-6-6-6-6-6|-2-2-2-2-2-2-2-2|-6---6-6-6-6-6-6|
A|-6-6---6-6-6-6-6|-4---4-4-4-4-4-4|-0-0-0-0-0-0-0-0|-4---4-4-4-4-4-4|
E|----------------|----------------|----------------|----------------|

e|----------------|
B|----------------|
G|----------------|
D|-2-2-2-2-2-2-2-2|
A|-0-0-0-0-0-0-0-0|
E|----------------|
preverse:

e|----------------|----------------|----------------|----------------|
B|----------------|----------------|----------------|----------------|
G|----------------|----------------|----------------|----------------|
D|----------------|----------------|----------------|----------------|
A|-2-2-2-2-7-7-9-9|1111111111111111|-2-2-2-2-7-7-9-9|1111111111111111|
E|-0-0-0-0-0-0-0-0|-0-0-0-0-0-0-0-0|-0-0-0-0-0-0-0-0|-0-0-0-0-0-0-0-0|

e|----------------|----------------|----------------|----------------|
B|----------------|----------------|----------------|----------------|
G|----------------|----------------|----------------|----------------|
D|-9p7-----7p5----|-2-2-2-2-2-2-2-2|-9p7----7p5-----|-2-2-2-2-2-2-2-2|
A|----------------|----------------|-7------5-------|-0-0-0-0-0-0-0-0|
E|----------------|----------------|----------------|----------------|

verse 2:

e|----------------|----------------|----------------|----------------|
B|----------------|----------------|----------------|----------------|
G|----------------|----------------|----------------|----------------|
D|---5-5-5---5-5-5|---5-5-5---5-5-5|---9-9-9---9-9-9|---9-9-9---9-9-9|
A|-6-6-6-6-6-6-6-6|-6-6-6-6-6-6-6-6|-9-9-9-9-9-9-9-9|-9-9-9-9-9-9-9-9|
E|-6-------6------|-6-------6------|-7-------7------|-7-------7------|

prechorus 2:

e|----------------|----------------|----------------|----------------|
B|----------------|----------------|----------------|----------------|
G|-----------4-0--|-----------6-0--|-----------4-0--|-----------2-0--|
D|-5-5-5-5-5------|-7-7-7-7-7------|-5-5-5-5-5------|-3-3-3-3-3------|
A|----------------|----------------|----------------|----------------|
E|----------------|----------------|----------------|----------------|

e|----------------|----------------|----------------|----------------|
B|-------------0--|-------------0--|-------------0--|-------------0--|
G|-----------4----|-----------6----|-----------4----|-----------2----|
D|-5-5-5-5-5------|-7-7-7-7-7------|-5-5-5-5-5------|-3-3-3-3-3------|
A|----------------|----------------|----------------|----------------|
E|----------------|----------------|----------------|----------------|

chorus 2:

e|----------------|----------------|----------------|----------------|
B|----------------|----------------|----------------|----------------|
G|-5---5---5-5----|---------9-9-8-8|-5---5---5-5----|---------9-9-8-8|
D|-5---5---5-5-6--|-6---666-9-9-9-9|-5---5---5-5-6--|-6---6-6-9-9-9-9|
A|-3---3---3-3-6--|-6---666-7-7-6-6|-3---3---3-3-6--|-6---6-6-7-7-6-6|
E|-------------4--|-4---444--------|-------------4--|-4---4-4--------|

e|----------------|----------------|----------------|----------------|
B|----------------|----------------|----------------|----------------|
G|-8-8---8-8-8-8-8|----------------|----------------|----------------|
D|-9-9---9-9-9-9-9|-6---6-6-6-6-6-6|-2-2-2-2-2-2-2-2|-6---6-6-6-6-6-6|
A|-6-6---6-6-6-6-6|-4---4-4-4-4-4-4|-0-0-0-0-0-0-0-0|-4---4-4-4-4-4-4|
E|----------------|----------------|----------------|----------------|

e|----------------|
B|----------------|
G|----------------|
D|-2-2-2-2-2-2-2-2|
A|-0-0-0-0-0-0-0-0|
E|----------------|

bridge:

e|----------------|----------------|----------------|----------------|
B|----------------|----------------|----------------|----------------|
G|----------------|----------------|----------------|----------------|
D|-2~--4~--6~--7~-|----------------|----------------|-5-5-5-5-5-5-5-5|
A|-0~--2~--4~--5~-|-3-3-3-3-3-3-3-3|-5-5-5-5-5-5-5-5|-3-3-3-3-3-3-3-3|
E|----------------|-0-0-0-0-0-0-0-0|-3-3-3-3-3-3-3-3|----------------|
                   PM--------------|PM--------------|PM--------------|

e|----------------|----------------|----------------|----------------|
B|----------------|----------------|----------------|----------------|
G|----------------|----------------|----------------|----------------|
D|-7-7-7-7-7-7-7-7|----------------|----------------|-5-5-5-5-5-5-5-5|
A|-5-5-5-5-5-5-5-5|-3-3-3-3-3-3-3-3|-5-5-5-5-5-5-5-5|-3-3-3-3-3-3-3-3|
E|----------------|-0-0-0-0-0-0-0-0|-3-3-3-3-3-3-3-3|----------------|
                  |PM--------------|PM--------------|PM--------------|

e|----------------|
B|----------------|
G|----------------|
D|-7-7-7-7-7-7-7-7|
A|-5-5-5-5-5-5-5-5|
E|----------------|

mini riff-thing:

e|----------------|----------------|----------------|----------------|
B|----------------|----------------|----------------|----------------|
G|----------------|----------------|121212101010-9-9|-7-7-7-7-7-7-7-7|
D|----------------|----------------|----------------|----------------|
A|-5-5-5-5-7-7-9-9|-5-5-5-5-7-7-9-9|----------------|----------------|
E|----------------|----------------|----------------|----------------|

e|----------------|----------------|----------------|----------------|
B|----------------|----------------|----------------|----------------|
G|----------------|----------------|-----9-9-7-7-7-7|-----7-7-5-5-5-5|
D|-5-5-5-5-7-7-9-9|-5-5-5-5-7-7-9-9|-5-5------------|-5-5------------|
A|-7-7-7-7-7-7-7-7|-7-7-7-7-7-7-7-7|----------------|----------------|
E|----------------|----------------|----------------|----------------|

e|----------------|----------------|
B|----------------|----------------|
G|----------------|-4-4-4-4-4-4-4-4|
D|-4-4-4-4-2-2-2-2|-4-4-4-4-4-4-4-4|
A|-4-4-4-4-2-2-2-2|-2-2-2-2-2-2-2-2|
E|-2-2-2-2-0-0-0-0|----------------|
PM----------------|PM------|

final chorus:

e|----------------|----------------|----------------|----------------|
B|----------------|----------------|----------------|----------------|
G|-5---5---5-5----|---------9-9-8-8|-5---5---5-5----|---------9-9-8-8|
D|-5---5---5-5-6--|-6---666-9-9-9-9|-5---5---5-5-6--|-6---6-6-9-9-9-9|
A|-3---3---3-3-6--|-6---666-7-7-6-6|-3---3---3-3-6--|-6---6-6-7-7-6-6|
E|-------------4--|-4---444--------|-------------4--|-4---4-4--------|

e|----------------|----------------|----------------|----------------|
B|----------------|----------------|----------------|----------------|
G|-8-8---8-8-8-8-8|----------------|----------------|----------------|
D|-9-9---9-9-9-9-9|-6---6-6-6-6-6-6|-2-2-2-2-2-2-2-2|-6---6-6-6-6-6-6|
A|-6-6---6-6-6-6-6|-4---4-4-4-4-4-4|-0-0-0-0-0-0-0-0|-4---4-4-4-4-4-4|
E|----------------|----------------|----------------|----------------|

e|----------------|----------------|----------------|
B|----------------|----------------|----------------|
G|----------------|----------------|----------------|
D|-2-2-2-2-2-2-2-2|-6---6-6-6-6-6-6|-2-2-2-2-2-2-2-2|
A|-0-0-0-0-0-0-0-0|-4---4-4-4-4-4-4|-0-0-0-0-0-0-0-0|
E|----------------|----------------|----------------|

outro: (x2)

e|----------------|----------------|----------------|----------------|
B|----------------|----------------|----------------|----------------|
G|----------------|----------------|----------------|----------------|
D|----------------|----------------|----------------|----------------|
A|-2-2-2-2-7-7-9-9|1111111111111111|-2-2-2-2-7-7-9-9|1111111111111111|
E|-0-0-0-0-0-0-0-0|-0-0-0-0-0-0-0-0|-0-0-0-0-0-0-0-0|-0-0-0-0-0-0-0-0|

e|----------------|----------------|----------------|----------------|
B|----------------|----------------|----------------|----------------|
G|----------------|----------------|----------------|----------------|
D|----------------|-9-9-9-9-7-7-7-7|----------------|-7-7-7-7-2-2-2-2|
A|12121212-9-9-9-9|-0-0-0-0-0-0-0-0|12121212-9-9-9-9|-0-0-0-0-0-0-0-0|
E|-0-0-0-0-0-0-0-0|----------------|-0-0-0-0-0-0-0-0|----------------|

                                  END

LYRICS: (they've been separated into bars that match the length of the
          guitar bars. Empty lyric bars are instrumental)

verse 1:
| She walks the streets all alone | and tries to find her way back home |
| Stiletto heels break on the stone | and she's just vodka, skin & bone |

prechorus:
|        |        | Don't expect anything more |        |

chorus 1: 
| They don't like what they see | I'd like to raise an objection |
| Doesn't matter to me | Don't need an explana- | -tion |
| For why u've gotta | act like this | Yeah, for why u've gotta |
| act like this |

verse 2:
| He tells his friends that he can't wait | And once again he stays out late|
| He's been called a waste of space | He's just a good man, lost his way |

prechorus 2:
|        |        | Don't expect anything more |        |
|        |        |         |         |

chorus 2:
| They don't like what they see | I'd like to raise an objection |
| Doesn't matter to me | Don't need an explana- | -tion |
| For why u've gotta | act like this | Yeah, for why u've gotta |
| act like this |

bridge:
|        | I don't ask much more of her | She's got her beliefs, she won't wear fur 
| Don't expect anything more | No, don't expect anything more |
| I don't ask much more of him | He's already way too thin | 
| Don't expect anything more | No, don't expect anything more |

final chorus:
| They don't like what they see | I'd like to raise an objection |
| Doesn't matter to me | Don't need an explana- | -tion |
| For why u've gotta | act like this | Yeah, for why u've gotta |
| act like this | Yeah, coz in the end you're just a kid |

                                 END
 
Low Altitude Sickness is: Bass - Morgan
                          Guitar - Henry
                          Drums - Charles


************************************

| /   slide up
| \   slide down
| h   hammer-on
| p   pull-off
| ~   vibrato
| +   harmonic
| x   Mute note
| b   Bend
| pb  Pre-bend
| br  Bend release
| pbr Pre-bend release
| brb Bend release bend

************************************
Tap to rate this tab
# A B C D E F G H I J K L M N O P Q R S T U V W X Y Z