Song name
# A B C D E F G H I J K L M N O P Q R S T U V W X Y Z

Misc Unsigned Bands - Rock Urbano - Himno A La Banda tab

Intro:

Em (x2)  (El rasgeo es utilizado esta nota)

e|---------------------------------|    
B|-5-----3-2-----------------------|    
G|----4------4-2-4--0-2-2-2-4-0----|(x2)
D|------------------------------2--|    
A|---------------------------------|    
E|---------------------------------|    


e|--------------------------------------------|
B|------0-1-------0-1-------0-1--3-1-0--------|
G|-2--2------2--2------2--2------------0-0h2--|
D|--------------------------------------------|
A|--------------------------------------------|
E|--------------------------------------------|


e|---------------------------------------------------------------|
B|------0-1-------0-1-------0-1--0-1-0-1-0-1-0-1-0-1-0-1-0-1-0-1-|
G|-2--2------2--2------2--2--------------------------------------|
D|---------------------------------------------------------------|
A|---------------------------------------------------------------|
E|---------------------------------------------------------------|


e|---------------------------------|    
B|-5-----3-2-----------------------|    
G|----4------4-2-4--0-2-2-2-4-0----|(x2)
D|------------------------------2--|    
A|---------------------------------|    
E|---------------------------------|    


e|--------------------------------------------|
B|------0-1-------0-1-------0-1--3-1-0--------|
G|-2--2------2--2------2--2------------0-0h2--|
D|--------------------------------------------|
A|--------------------------------------------|
E|--------------------------------------------|


e|------------------------------------------------------------------|
B|------0-1-------0-1-------0-1--0-1-0-1-0-1-0-1-0-1-0-1-0-1-0-1----|
G|-2--2------2--2------2--2-----------------------------------------|
D|----------------------------------------------------------------2-|
A|------------------------------------------------------------------|
E|------------------------------------------------------------------|


Cambio

D A Em A


Interludio

Em A Em A 


e|---------------------------------|    
B|-5-----3-2-----------------------|    
G|----4------4-2-4--0-2-2-2-4-0----|(x2)
D|------------------------------2--|    
A|---------------------------------|    
E|---------------------------------|    


e|--------------------------------------------|
B|------0-1-------0-1-------0-1--3-1-0--------|
G|-2--2------2--2------2--2------------0-0h2--|
D|--------------------------------------------|
A|--------------------------------------------|
E|--------------------------------------------|


e|------------------------------------------------------------------|
B|------0-1-------0-1-------0-1--0-1-0-1-0-1-0-1-0-1-0-1-0-1-0-1----|
G|-2--2------2--2------2--2-----------------------------------------|
D|----------------------------------------------------------------2-|
A|------------------------------------------------------------------|
E|------------------------------------------------------------------|


e|---------------------------------|    
B|-5-----3-2-----------------------|    
G|----4------4-2-4--0-2-2-2-4-0----|(x2)
D|------------------------------2--|    
A|---------------------------------|    
E|---------------------------------|    


e|--------------------------------------------|
B|------0-1-------0-1-------0-1--3-1-0--------|
G|-2--2------2--2------2--2------------0-0h2--|
D|--------------------------------------------|
A|--------------------------------------------|
E|--------------------------------------------|


e|------------------------------------------------------------------|
B|------0-1-------0-1-------0-1--0-1-0-1-0-1-0-1-0-1-0-1-0-1-0-1----|
G|-2--2------2--2------2--2-----------------------------------------|
D|----------------------------------------------------------------2-|
A|------------------------------------------------------------------|
E|------------------------------------------------------------------|


e|---------------------|    
B|-5-----3-2-----------|    
G|----4------4-2-4-----|(x4)
D|------------------2--|    
A|---------------------|    
E|---------------------| 
Tap to rate this tab
# A B C D E F G H I J K L M N O P Q R S T U V W X Y Z