Song name
# A B C D E F G H I J K L M N O P Q R S T U V W X Y Z

Misc Unsigned Bands - Quiet Game Starting Now - Stay Gold Pony Boy tab

*   = Palm mute
[ ] = Pinch Harmonic
~   = Let note ring

I'm pretty sure I screwed up as far as the number of times to play each note in riffs 2 
and 3, but it's easy enough to figure out if you're playing along with the song.

Riff 1

e ---------------------------------|
b ---------------------------------|
G ---------------------------------|
D 0--------------------------------|
A 0--0-0-0-5-0-0-5-0-5-0-0-9h10-9~-|
D 0--0-0-0---0-0---0---0-0---------|
     * * *   * *   *   * *

e ----------------------------------|
b ----------------------------------|
G ----------------------------------|
D 0---------------------------------|
A 0--0-0-0-5-0-0-5-0-5-0-0-4h5-[5]~-|
D 0--0-0-0---0-0---0---0-0----------|
     * * *   * *   *   * *

e ---------------------------------|
b ---------------------------------|
G ---------------------------------|
D 0--------------------------------|
A 0--0-0-0-5-0-0-5-0-5-0-0-9h10-9~-|
D 0--0-0-0---0-0---0---0-0---------|
     * * *   * *   *   * *

e ------------------------------|
b ------------------------------|
G ------------------------------|
D -------4h5--------------5p4-4-|
A 5-------------7---------------|
D 0---0---------0---0-0---------|
      *             * *



Riff 2

e ------------------------------------------------------------------|
b ------------------------------------------------------------------|
G 7--7-7-7-7-7-7-7-7-7-7-7-9-9-9-11--11-11-11-11-11-11-11-11-11-11--|
D x--x-x-x-x-x-x-x-x-x-x-x-x-x-x-x---x--x--x--x--x--x--x--x--x--x---|
A 5--5-5-5-5-5-5-5-5-5-5-5-7-7-7-9---9--9--9--9--9--9--9--9--9--9---|
D ------------------------------------------------------------------|


e -------------------------------------------------------------------|
b -------------------------------------------------------------------|
G 14--14-14-14-14-14-14-14-14--12-12-12-12-12/9/11-11-11-11-12-12-12-|
D x---x--x--x--x--x--x--x--x---x--x--x--x--x--x-x--x--x--x--x--x--x--|
A 12--12-12-12-12-12-12-12-12--10-10-10-10-10/7/9--9--9--9--10-10-10-|
D -------------------------------------------------------------------|

e ------------------------------------------------------------------|
b ------------------------------------------------------------------|
G 7--7-7-7-7-7-7-7-7-7-7-7-9-9-9-11--11-11-11-11-11-11-11-11-11-11--|
D x--x-x-x-x-x-x-x-x-x-x-x-x-x-x-x---x--x--x--x--x--x--x--x--x--x---|
A 5--5-5-5-5-5-5-5-5-5-5-5-7-7-7-9---9--9--9--9--9--9--9--9--9--9---|
D ------------------------------------------------------------------|

e -------------------------------------------------------------------|
b -------------------------------------------------------------------|
G ----14-----14-----12--12/9/12-11-11-11-11-11-11-11-11--12-12-12-12-|
D ----x-------x-----x---x--x-x--x--x--x--x--x--x--x--x---x--x--x--x--|
A xxx-12-x-x-12-xxx-10--10/7/9--9--9--9--9--9--9--9--9---10-10-10-10-|
D 000----0-0----000--------------------------------------------------|
  ***    * *    ***


Riff 3

e --------------------------------|
b --------------------------------|
G 7--7-7--------9--9-11--11-11-11-|
D x--x-x-5--5-5-x--x-x---x--x--x--|
A 5--5-5-5--5-5-7--7-9---9--9--9--|
D -------5--5-5-------------------|

e -------------------------------|
b -------------------------------|
G 7--7-7--------11-9-7---7--7--7-|
D x--x-x-5--5-5-x--x-x---x--x--x-|
A 5--5-5-5--5-5-9--7-5---5--5--5-|
D -------5--5-5------------------|

e --------------------------------|
b --------------------------------|
G 7--7-7--------9--9-11--11-11-11-|
D x--x-x-5--5-5-x--x-x---x--x--x--|
A 5--5-5-5--5-5-7--7-9---9--9--9--|
D -------5--5-5-------------------|

e -------------------------------|
b -------------------------------|
G 7--7-7--------9--7-7---7--7--7-|
D x--x-x-5--5-5-x--x-x---x--x--x-|
A 5--5-5-5--5-5-7--5-5---5--5--5-|
D -------5--5-5------------------|


Riff 4

e -----------|
b -----------|
G -----------|
D 0---2---5~-|
A 0---2---5~-|
D 0---2---5~-|

e -----------|
b -----------|
G -----------|
D 5---2---0~-|
A 5---2---0~-|
D 5---2---0~-|


Riff 5

e ---------------------------|
b ---------------------------|
G ----------------------7~---|
D 0-------0-----0-------x----|
A 0-0-0-0-0-0-0-0-------5~---|
D 0-0-0-0-0-0-0-0------------|
    * * *   * *

e ----------------------------|
b ----------------------------|
G -------------------12-12-12-|
D 0-------0-----0----x--x--x--|
A 0-0-0-0-0-0-0-0----10-10-10-|
D 0-0-0-0-0-0-0-0-------------|
    * * *   * *


Riff 6

e -----------------|
b -----------------|
G -----------------|
D -----------------|
A 0-0-0-0-0-0-0-0~-|
D 0-0-0-0-0-0-0-0~-|
  * * * * * * * *

e -----------------|
b -----------------|
G -----------------|
D -----------------|
A 000-000-0-0-0-0~-|
D 000-000-0-0-0-0~-|
  *** *** * * * *

Outro

e --------------------------|
b --------------------------|
G --------------------------|
D ----4h5-----4h5-----4h5-0-|
A 5h7-----5h7-----5h7-----0-|
D ------------------------0-|




Order:
Riff 1 (3x)

Riff 2 (1x)

Riff 3 (2x)

Riff 1 (2x)

Riff 2 (1x)

Riff 3 (2x)

Riff 4 (2x)

Riff 5 (2x)

Riff 6 (2x)

Riff 1 (2x)

Outro
Tap to rate this tab
# A B C D E F G H I J K L M N O P Q R S T U V W X Y Z