Song name
# A B C D E F G H I J K L M N O P Q R S T U V W X Y Z

Misc Unsigned Bands - Kaskelot - Muggen Haand tab

-------------------------------------------------------------------------------
			    MUGGEN H┼ND - KASK╔LOT
-------------------------------------------------------------------------------
Tabbed by: O
Email: lol@lol.com

Tuning: Awesome


Intro and the A-part
e|------------------------------------|
B|------------------------------------|
G|----99---------99--99----7-77-------|
D|-------99-77-9-------9-7------------|
A|------------------------------------|
E|------------------------------------|

the B-part
1.
e|-------------0-----------------------------|
B|-------------0-----------------------------|
G|-------------0-----------------------------|
D|----/6-/6---------\4--4-4--xx-2/4-2/4------|
A|----/7-/7---------\5--5-5--xx-3/5-3/5------|
E|-------------------------------------------|

2.
e|-------------0-----------------------------|
B|-------------0-----------------------------|
G|-------------0-----------------------------|
D|----/6-/6---------/9--9--9---7-7-----------|
A|----/7-/7---------/10-10-10--9-9-----------|
E|-------------------------------------------|

3. (same as 1.)
e|-------------0-----------------------------|
B|-------------0-----------------------------|
G|-------------0-----------------------------|
D|----/6-/6---------\4--4-4--xx-2/4-2/4------|
A|----/7-/7---------\5--5-5--xx-3/5-3/5------|
E|-------------------------------------------|

4.
e|-------------0-----------------------------|
B|-------------0-----------------------------|
G|-------------0-----------------------------|
D|----/6-/6---------/9---9--9/11-11----------|
A|----/7-/7---------/10-10-10/12-12----------|
E|-------------------------------------------|


A-part again
B-part
Keyz-solo. Start chord: Dm7
e|--------------------------------|
B|---10---------------------------|
G|---10---------------------------|
D|---10---------------------------|
A|---x----------------------------|
E|---10---------------------------|

End of keysolo: C#m6
e|---------------------------|
B|--4---4---4---4--4-4-------|
G|--3---3---3---3--3-3-------|
D|--2---2---2---2--2-2-------|
A|--4---4---4---4--4-4-------|
E|---------------------------|

Guitar & sax melodi
C-part                                                                       (*not 4. time)
e|--------------15--------------------13------------------|
B|---10--/15--------13--15-10--/15--------11---*13--------|
G|--------------------------------------------------------|
D|--------------------------------------------------| x 4-|
A|--------------------------------------------------------|
E|--------------------------------------------------------|

A-part
B-part

= $$$$Profit!$$$$$$$$$


For extra succes, use magnets!!!

Oliver Skj°nnemand
************************************

| /   slide up
| \   slide down
| h   hammer-on
| p   pull-off
| ~   vibrato
| +   harmonic
| x   Mute note
| b   Bend
| pb  Pre-bend
| br  Bend release
| pbr Pre-bend release
| brb Bend release bend

************************************
Tap to rate this tab
# A B C D E F G H I J K L M N O P Q R S T U V W X Y Z