Song name
# A B C D E F G H I J K L M N O P Q R S T U V W X Y Z

Misc Unsigned Bands - Low Altitude Sickness - Hall Of Fame tab

-------------------------------------------------------------------------------
			     HALL OF FAME - Low Altitude Sickness
-------------------------------------------------------------------------------
Guitar Written & Tabbed by: Henry
Lyrics Written by: Henry
Email: smallandmighty@live.co.uk

Tuning: standard (EADGBe)
Guitar 1: clean
Guitar 2: distortion
(Lyrics included at bottom of page)

intro:
  (Guitar 1)
e|----------------|----------------|----------------|----------------|
B|----------------|----------------|----------------|----------------|
G|---------2---2--|----------------|---------2---2--|----------------|
D|---5-4-0---0---0|-----4-5-2---2--|---5-4-0---0---0|-----4-5-7-5-4--|
A|-2--------------|-2-5-------0---0|-2--------------|-2-5-----------5|
E|----------------|----------------|----------------|----------------|
 |
 |(Guitar 2)
e|----------------|----------------|----------------|----------------|
B|----------------|----------------|----------------|----------------|
G|-4-hold---------|----------------|-4-hold---------|----------------|
D|-4-hold---------|----------------|-4-hold---------|----------------|
A|-2-hold---------|----------------|-2-hold---------|----------------|
E|----------------|----------------|----------------|----------------|

  (Guitar 1)
e|----------------|----------------|----------------|----------------|
B|----------------|----------------|----------------|----------------|
G|---------2---2--|----------------|---------4---4--|----------------|
D|---5-4-0---0---0|-----4-5-2---2--|---5-4-0---2---2|-----4-5-7-5-4--|
A|-2--------------|-2-5-------2---2|-2--------------|-2-5-----------7|
E|----------------|----------------|----------------|----------------|
 |
 |(Guitar 2)
e|----------------|----------------|----------------|----------------|
B|----------------|----------------|----------------|----------------|
G|-4-hold---------|----------------|-4-hold---------|----------------|
D|-4-hold---------|----------------|-4-hold---------|----------------|
A|-2-hold---------|----------------|-2-hold---------|----------------|
E|----------------|----------------|----------------|----------------|

verse 1:
  (Guitar 1)
e|----------------|----------------|----------------|----------------|
B|----------------|----------------|----------------|----------------|
G|----------------|----------------|----------------|----------------|
D|-----5-------5--|-----5-------5--|-----7-------7--|----------------|
A|-2-2-----2-2----|-3-3-----3-3----|-5-5-----5-5----|-----7-------7--|
E|----------------|----------------|----------------|-5-5-----5-5----|
 |
 |(Guitar 2)
e|----------------|----------------|----------------|----------------|
B|----------------|----------------|----------------|----------------|
G|----------------|----------------|----------------|----------------|
D|----------------|----------------|----------------|----------------|
A|-2~-------------|----------------|----------------|----------------|
E|----------------|----------------|----------------|----------------|

  (Guitar 1)
e|----------------|----------------|----------------|----------------|
B|----------------|----------------|----------------|----------------|
G|----------------|----------------|----------------|----------------|
D|-----5------5---|-----5-------5--|----------------|----------------|
A|-2-2----2-2-----|-3-3-----3-3----|-----5-------5--|-----7-------7--|
E|----------------|----------------|-3-3-----3-3----|-5-5-----5-5----|
 |
 |(Guitar 2)
e|----------------|----------------|----------------|----------------|
B|----------------|----------------|----------------|----------------|
G|----------------|----------------|----------------|----------------|
D|----------------|----------------|----------------|----------------|
A|-2~-------------|----------------|----------------|----------------|
E|----------------|----------------|----------------|----------------|

  (Guitar 1)
e|----------------|----------------|----------------|----------------|
B|----------------|----------------|----------------|----------------|
G|----------------|----------------|----------------|----------------|
D|-5-5-5-5-5-5-5-5|-5-5-5-5-5-5-5-5|-7-7-7-7-7-7-7-7|----------------|
A|-2-2-2-2-2-2-2-2|-3-3-3-3-3-3-3-3|-5-5-5-5-5-5-5-5|-7-7-7-7-7-7-7-7|
E|----------------|----------------|----------------|-5-5-5-5-5-5-5-5|
 |
 |(Guitar 2)
e|----------------|----------------|----------------|----------------|
B|----------------|----------------|----------------|----------------|
G|----------------|----------------|----------------|----------------|
D|----------------|----------------|----------------|----------------|
A|-2~-------------|-3~-------------|-5~-------------|----------------|
E|----------------|----------------|----------------|-5~-------------|

  (Guitar 1)
e|----------------|----------------|----------------|----------------|
B|----------------|----------------|----------------|----------------|
G|----------------|----------------|----------------|----------------|
D|-5-5-5-5-5-5-5-5|-5-5-5-5-5-5-5-5|----------------|----------------|
A|-2-2-2-2-2-2-2-2|-3-3-3-3-3-3-3-3|-5-5-5-5-5-5-5-5|-7-7-7-7-7-7-7-7|
E|----------------|----------------|-3-3-3-3-3-3-3-3|-5-5-5-5-5-5-5-5|
 |
 |(Guitar 2)
e|----------------|----------------|----------------|----------------|
B|----------------|----------------|----------------|----------------|
G|----------------|----------------|----------------|----------------|
D|----------------|----------------|----------------|----------------|
A|-2~-------------|-3~-------------|----------------|----------------|
E|----------------|----------------|-3~-------------|-5~-------------|
chorus 1 (half chorus):
  (Guitar 1)
e|----------------|----------------|----------------|----------------|
B|----------------|----------------|----------------|----------------|
G|-6-6-6-6-6-6-6-6|----------------|----------------|----------------|
D|-6-6-6-6-6-6-6-6|-7-7-7-7-7-7-7-7|-9-9-9-9-9-9-9-9|10101010-9-9-9-9|
A|-4-4-4-4-4-4-4-4|-5-5-5-5-5-5-5-5|-7-7-7-7-7-7-7-7|-8-8-8-8-7-7-7-7|
E|----------------|----------------|----------------|----------------|
 |
 |(Guitar 2)
e|----------------|----------------|----------------|----------------|
B|----------------|----------------|----------------|----------------|
G|-6-6-6-6-6-6-6-6|----------------|----------------|----------------|
D|-6-6-6-6-6-6-6-6|-7-7-7-7-7-7-7-7|-9-9-9-9-9-9-9-9|10101010-9-9-9-9|
A|-4-4-4-4-4-4-4-4|-5-5-5-5-5-5-5-5|-7-7-7-7-7-7-7-7|-8-8-8-8-7-7-7-7|
E|----------------|----------------|----------------|----------------|

  (Guitar 1)
e|----------------|----------------|----------------|----------------|
B|----------------|----------------|----------------|----------------|
G|-6-6-6-6-6-6-6-6|----------------|----------------|----------------|
D|-6-6-6-6-6-6-6-6|-7-7-7-7-7-7-7-7|-9-9-9-9-9-9-9-9|10101010-9-9-9-9|
A|-4-4-4-4-4-4-4-4|-5-5-5-5-5-5-5-5|-7-7-7-7-7-7-7-7|-8-8-8-8-7-7-7-7|
E|----------------|----------------|----------------|----------------|
 |
 |(Guitar 2)
e|----------------|----------------|----------------|----------------|
B|----------------|----------------|----------------|----------------|
G|-6-6-6-6-6-6-6-6|----------------|----------------|----------------|
D|-6-6-6-6-6-6-6-6|-7-7-7-7-7-7-7-7|-9-9-9-9-9-9-9-9|10101010-9-9-9-9|
A|-4-4-4-4-4-4-4-4|-5-5-5-5-5-5-5-5|-7-7-7-7-7-7-7-7|-8-8-8-8-7-7-7-7|
E|----------------|----------------|----------------|----------------|

preverse:
  (Guitar 1)
e|----------------|----------------|----------------|----------------|
B|----------------|----------------|----------------|----------------|
G|---------2---2--|----------------|---------2---2--|----------------|
D|---5-4-0---0---0|-----4-5-2---2--|---5-4-0---0---0|-----4-5-7-5-4--|
A|-2--------------|-2-5-------0---0|-2--------------|-2-5-----------5|
E|----------------|----------------|----------------|----------------|
 |
 |(Guitar 2)
e|----------------|----------------|----------------|----------------|
B|----------------|----------------|----------------|----------------|
G|-4-hold---------|----------------|-4-hold---------|----------------|
D|-4-hold---------|----------------|-4-hold---------|----------------|
A|-2-hold---------|----------------|-2-hold---------|----------------|
E|----------------|----------------|----------------|----------------|

  (Guitar 1)
e|----------------|----------------|----------------|----------------|
B|----------------|----------------|----------------|----------------|
G|---------2---2--|----------------|---------4---4--|----------------|
D|---5-4-0---0---0|-----4-5-2---2--|---5-4-0---2---2|-----4-5-7-5-4--|
A|-2--------------|-2-5-------2---2|-2--------------|-2-5-----------7|
E|----------------|----------------|----------------|----------------|
 |
 |(Guitar 2)
e|----------------|----------------|----------------|----------------|
B|----------------|----------------|----------------|----------------|
G|-4-hold---------|----------------|-4-hold---------|----------------|
D|-4-hold---------|----------------|-4-hold---------|----------------|
A|-2-hold---------|----------------|-2-hold---------|----------------|
E|----------------|----------------|----------------|----------------|

verse 2:
  (Guitar 1)
e|----------------|----------------|----------------|----------------|
B|----------------|----------------|----------------|----------------|
G|----------------|----------------|----------------|----------------|
D|-----5-------5--|-----5-------5--|-----7-------7--|----------------|
A|-2-2-----2-2----|-3-3-----3-3----|-5-5-----5-5----|-----7-------7--|
E|----------------|----------------|----------------|-5-5-----5-5----|
 |
 |(Guitar 2)
e|----------------|----------------|----------------|----------------|
B|----------------|----------------|----------------|----------------|
G|----------------|----------------|----------------|----------------|
D|----------------|----------------|----------------|----------------|
A|-2~-------------|----------------|----------------|----------------|
E|----------------|----------------|----------------|----------------|

  (Guitar 1)
e|----------------|----------------|----------------|----------------|
B|----------------|----------------|----------------|----------------|
G|----------------|----------------|----------------|----------------|
D|-----5------5---|-----5-------5--|----------------|----------------|
A|-2-2----2-2-----|-3-3-----3-3----|-----5-------5--|-----7-------7--|
E|----------------|----------------|-3-3-----3-3----|-5-5-----5-5----|
 |
 |(Guitar 2)
e|----------------|----------------|----------------|----------------|
B|----------------|----------------|----------------|----------------|
G|----------------|----------------|----------------|----------------|
D|----------------|----------------|----------------|----------------|
A|-2~-------------|----------------|----------------|----------------|
E|----------------|----------------|----------------|----------------|

  (Guitar 1)
e|----------------|----------------|----------------|----------------|
B|----------------|----------------|----------------|----------------|
G|----------------|----------------|----------------|----------------|
D|-5-5-5-5-5-5-5-5|-5-5-5-5-5-5-5-5|-7-7-7-7-7-7-7-7|----------------|
A|-2-2-2-2-2-2-2-2|-3-3-3-3-3-3-3-3|-5-5-5-5-5-5-5-5|-7-7-7-7-7-7-7-7|
E|----------------|----------------|----------------|-5-5-5-5-5-5-5-5|
 |
 |(Guitar 2)
e|----------------|----------------|----------------|----------------|
B|----------------|----------------|----------------|----------------|
G|----------------|----------------|----------------|----------------|
D|----------------|----------------|----------------|----------------|
A|-2~-------------|-3~-------------|-5~-------------|----------------|
E|----------------|----------------|----------------|-5~-------------|

  (Guitar 1)
e|----------------|----------------|----------------|----------------|
B|----------------|----------------|----------------|----------------|
G|----------------|----------------|----------------|----------------|
D|-5-5-5-5-5-5-5-5|-5-5-5-5-5-5-5-5|----------------|----------------|
A|-2-2-2-2-2-2-2-2|-3-3-3-3-3-3-3-3|-5-5-5-5-5-5-5-5|-7-7-7-7-7-7-7-7|
E|----------------|----------------|-3-3-3-3-3-3-3-3|-5-5-5-5-5-5-5-5|
 |
 |(Guitar 2)
e|----------------|----------------|----------------|----------------|
B|----------------|----------------|----------------|----------------|
G|----------------|----------------|----------------|----------------|
D|----------------|----------------|----------------|----------------|
A|-2~-------------|-3~-------------|----------------|----------------|
E|----------------|----------------|-3~-------------|-5~-------------|

  (Guitar 1)
e|----------------|----------------|----------------|----------------|
B|----------------|----------------|----------------|----------------|
G|-4-4-4-4-4-4-4-4|-5-5-5-5-5-5-5-5|-7-7-7-7-7-7-7-7|----------------|
D|-x-x-x-x-x-x-x-x|-x-x-x-x-x-x-x-x|-x-x-x-x-x-x-x-x|-7-7-7-7-7-7-7-7|
A|-2-2-2-2-2-2-2-2|-3-3-3-3-3-3-3-3|-5-5-5-5-5-5-5-5|-x-x-x-x-x-x-x-x|
E|----------------|----------------|----------------|-5-5-5-5-5-5-5-5|
 |
 |(Guitar 2)
e|-7~-------------|-8~-------------|10~-------------|----------------|
B|-x--------------|-x--------------|-x--------------|10~-------------|
G|-4~-------------|-5~-------------|-7~-------------|-x--------------|
D|----------------|----------------|----------------|-7~-------------|
A|----------------|----------------|----------------|----------------|
E|----------------|----------------|----------------|----------------|

 (Guitar 1)
e|----------------|----------------|----------------|----------------|
B|----------------|----------------|----------------|----------------|
G|-4-4-4-4-4-4-4-4|-5-5-5-5-5-5-5-5|----------------|----------------|
D|-x-x-x-x-x-x-x-x|-x-x-x-x-x-x-x-x|-5-5-5-5-5-5-5-5|-7-7-7-7-7-7-7-7|
A|-2-2-2-2-2-2-2-2|-3-3-3-3-3-3-3-3|-x-x-x-x-x-x-x-x|-x-x-x-x-x-x-x-x|
E|----------------|----------------|-3-3-3-3-3-3-3-3|-5-5-5-5-5-5-5-5|
 |
 |(Guitar 2)
e|-7~-------------|-8~-------------|----------------|----------------|
B|-x--------------|-x--------------|10~-------------|10~-------------|
G|-4~-------------|-5~-------------|-x--------------|-x--------------|
D|----------------|----------------|-7~-------------|-7~-------------|
A|----------------|----------------|----------------|----------------|
E|----------------|----------------|----------------|----------------|

chorus 2:
  (Guitar 1)
e|----------------|----------------|----------------|----------------|
B|----------------|----------------|----------------|----------------|
G|-6-6-6-6-6-6-6-6|----------------|----------------|----------------|
D|-6-6-6-6-6-6-6-6|-7-7-7-7-7-7-7-7|-9-9-9-9-9-9-9-9|10101010-9-9-9-9|
A|-4-4-4-4-4-4-4-4|-5-5-5-5-5-5-5-5|-7-7-7-7-7-7-7-7|-8-8-8-8-7-7-7-7|
E|----------------|----------------|----------------|----------------|
 |
 |(Guitar 2)
e|----------------|----------------|----------------|----------------|
B|----------------|----------------|----------------|----------------|
G|-6-6-6-6-6-6-6-6|----------------|----------------|----------------|
D|-6-6-6-6-6-6-6-6|-7-7-7-7-7-7-7-7|-9-9-9-9-9-9-9-9|10101010-9-9-9-9|
A|-4-4-4-4-4-4-4-4|-5-5-5-5-5-5-5-5|-7-7-7-7-7-7-7-7|-8-8-8-8-7-7-7-7|
E|----------------|----------------|----------------|----------------|

  (Guitar 1)
e|----------------|----------------|----------------|----------------|
B|----------------|----------------|----------------|----------------|
G|-6-6-6-6-6-6-6-6|----------------|----------------|----------------|
D|-6-6-6-6-6-6-6-6|-7-7-7-7-7-7-7-7|-9-9-9-9-9-9-9-9|10101010-9-9-9-9|
A|-4-4-4-4-4-4-4-4|-5-5-5-5-5-5-5-5|-7-7-7-7-7-7-7-7|-8-8-8-8-7-7-7-7|
E|----------------|----------------|----------------|----------------|
 |
 |(Guitar 2)
e|----------------|----------------|----------------|----------------|
B|----------------|----------------|----------------|----------------|
G|-6-6-6-6-6-6-6-6|----------------|----------------|----------------|
D|-6-6-6-6-6-6-6-6|-7-7-7-7-7-7-7-7|-9-9-9-9-9-9-9-9|10101010-9-9-9-9|
A|-4-4-4-4-4-4-4-4|-5-5-5-5-5-5-5-5|-7-7-7-7-7-7-7-7|-8-8-8-8-7-7-7-7|
E|----------------|----------------|----------------|----------------|

  (Guitar 1)
e|-5-5-5-5-5-5-5-5|----------------|----------------|----------------|
B|----------------|----------------|-8-8-8-8-8-8-8-8|-6-6-6-6-5-5-5-5|
G|----------------|-5-5-5-5-5-5-5-5|----------------|----------------|
D|----------------|----------------|----------------|----------------|
A|----------------|----------------|----------------|----------------|
E|----------------|----------------|----------------|----------------|
 |
 |(Guitar 2)
e|----------------|----------------|----------------|----------------|
B|----------------|----------------|----------------|----------------|
G|-6-6-6-6-6-6-6-6|----------------|----------------|----------------|
D|-6-6-6-6-6-6-6-6|-7-7-7-7-7-7-7-7|-9-9-9-9-9-9-9-9|10101010-9-9-9-9|
A|-4-4-4-4-4-4-4-4|-5-5-5-5-5-5-5-5|-7-7-7-7-7-7-7-7|-8-8-8-8-7-7-7-7|
E|----------------|----------------|----------------|----------------|

  (Guitar 1)
e|-5-5-5-5-5-5-5-5|----------------|----------------|----------------|
B|----------------|----------------|-6-6-6-6-6-6-6-6|-5-5-5-5-3-3-3-3|
G|----------------|-5-5-5-5-5-5-5-5|----------------|----------------|
D|----------------|----------------|----------------|----------------|
A|----------------|----------------|----------------|----------------|
E|----------------|----------------|----------------|----------------|
 |
 |(Guitar 2)
e|----------------|----------------|----------------|----------------|
B|----------------|----------------|----------------|----------------|
G|-6-6-6-6-6-6-6-6|----------------|----------------|----------------|
D|-6-6-6-6-6-6-6-6|-7-7-7-7-7-7-7-7|-9-9-9-9-9-9-9-9|10101010-9-9-9-9|
A|-4-4-4-4-4-4-4-4|-5-5-5-5-5-5-5-5|-7-7-7-7-7-7-7-7|-8-8-8-8-7-7-7-7|
E|----------------|----------------|----------------|----------------|

bridge:
  (Guitar 1)
e|----------------|----------------|----------------|----------------|
B|----------------|----------------|----------------|----------------|
G|-----6-----6----|-----7-----7----|-----9-----9----|----11----11----|
D|---7-----7-----7|---7-----7-----7|---9-----9-----9|--11----11----11|
A|-4-----4-----4--|-5-----5-----5--|-7-----7-----7--|-9-----9-----9--|
E|----------------|----------------|----------------|----------------|
 |
 |(Guitar 2)
e|----------------|----------------|----------------|----------------|
B|----------------|----------------|----------------|----------------|
G|----------------|----------------|----------------|----------------|
D|-5~-------------|-5~-------------|-7~-------------|-9~-------------|
A|-2~-------------|-3~-------------|-5~-------------|-7~-------------|
E|----------------|----------------|----------------|----------------|

  (Guitar 1)
e|----------------|----------------|----------------|----------------|
B|----------------|----------------|----------------|----------------|
G|-----6-----6----|-----7-----7----|----------------|----------------|
D|---7-----7-----7|---7-----7-----7|-----7-----7----|-----9-----9----|
A|-4-----4-----4--|-5-----5-----5--|---7-----7-----7|---9-----9-----9|
E|----------------|----------------|-5-----5-----5--|-7-----7-----7--|
 |
 |(Guitar 2)
e|----------------|----------------|----------------|----------------|
B|----------------|----------------|----------------|----------------|
G|----------------|----------------|----------------|----------------|
D|-5~-------------|-5~-------------|----------------|----------------|
A|-2~-------------|-3~-------------|-5~-------------|-7~-------------|
E|----------------|----------------|-3~-------------|-5~-------------|

  (Guitar 1)
e|----------------|----------------|----------------|----------------|
B|----------------|----------------|----------------|----------------|
G|-4---4-4-4---4-4|-5---5-5-5---5-5|-4---4-4-4---4-4|-4---4-4-4---4-4|
D|-5-------5------|-5-------5------|-5-------5------|-4-------4------|
A|----------------|----------------|----------------|----------------|
E|----------------|----------------|----------------|----------------|
 |
 |(Guitar 2)
e|----------------|----------------|----------------|----------------|
B|----------------|----------------|----------------|----------------|
G|----------------|----------------|----------------|----------------|
D|-5~-------------|-5~-------------|-7~-------------|-9~-------------|
A|-2~-------------|-3~-------------|-5~-------------|-7~-------------|
E|----------------|----------------|----------------|----------------|

  (Guitar 1)
e|----------------|----------------|----------------|----------------|
B|----------------|----------------|----------------|----------------|
G|-4---4-4-4---4-4|-5---5-5-5---5-5|-4---4-4-4---4-4|-4---4-4-4---4-4|
D|-5-------5------|-5-------5------|-5-------5------|-4-------4------|
A|----------------|----------------|----------------|----------------|
E|----------------|----------------|----------------|----------------|
 |
 |(Guitar 2)
e|----------------|----------------|----------------|----------------|
B|----------------|----------------|----------------|----------------|
G|----------------|----------------|----------------|----------------|
D|-5~-------------|-5~-------------|----------------|----------------|
A|-2~-------------|-3~-------------|-5~-------------|-7~-------------|
E|----------------|----------------|-3~-------------|-5~-------------|

  (Guitar 1)
e|-5--------------|-5--------------|-5--------------|-5--------------|
B|-5-------8-6-5--|-5-------6-5-3--|-5-------8-6-5--|-5-------6-5-3--|
G|---5------------|---5------------|---5------------|---5------------|
D|----------------|----------------|----------------|----------------|
A|----------------|----------------|----------------|----------------|
E|----------------|----------------|----------------|----------------|
 |
 |(Guitar 2)
e|-5-hold---------|----------------|----------------|----------------|
B|-5-hold---------|----------------|----------------|----------------|
G|----------------|----------------|----------------|----------------|
D|----------------|----------------|-5-5-5-5-5------|-5-5-5-5-5------|
A|----------------|----------------|-2-2-2-2-2------|-3-3-3-3-3------|
E|----------------|----------------|----------------|----------------|
                                    PM--------|      PM--------|

final chorus:
  (Guitar 1)
e|-5-5-5-5-5-5-5-5|----------------|----------------|----------------|
B|----------------|----------------|-8-8-8-8-8-8-8-8|-6-6-6-6-5-5-5-5|
G|----------------|-5-5-5-5-5-5-5-5|----------------|----------------|
D|----------------|----------------|----------------|----------------|
A|----------------|----------------|----------------|----------------|
E|----------------|----------------|----------------|----------------|
 |
 |(Guitar 2)
e|----------------|----------------|----------------|----------------|
B|----------------|----------------|----------------|----------------|
G|-6-6-6-6-6-6-6-6|----------------|----------------|----------------|
D|-6-6-6-6-6-6-6-6|-7-7-7-7-7-7-7-7|-9-9-9-9-9-9-9-9|10101010-9-9-9-9|
A|-4-4-4-4-4-4-4-4|-5-5-5-5-5-5-5-5|-7-7-7-7-7-7-7-7|-8-8-8-8-7-7-7-7|
E|----------------|----------------|----------------|----------------|

  (Guitar 1)
e|-5-5-5-5-5-5-5-5|----------------|----------------|----------------|
B|----------------|----------------|-6-6-6-6-6-6-6-6|-5-5-5-5-3-3-3-3|
G|----------------|-5-5-5-5-5-5-5-5|----------------|----------------|
D|----------------|----------------|----------------|----------------|
A|----------------|----------------|----------------|----------------|
E|----------------|----------------|----------------|----------------|
 |
 |(Guitar 2)
e|----------------|----------------|----------------|----------------|
B|----------------|----------------|----------------|----------------|
G|-6-6-6-6-6-6-6-6|----------------|----------------|----------------|
D|-6-6-6-6-6-6-6-6|-7-7-7-7-7-7-7-7|-9-9-9-9-9-9-9-9|10101010-9-9-9-9|
A|-4-4-4-4-4-4-4-4|-5-5-5-5-5-5-5-5|-7-7-7-7-7-7-7-7|-8-8-8-8-7-7-7-7|
E|----------------|----------------|----------------|----------------|

  (Guitar 1)
e|-5-5-5-5-5-5-5-5|----------------|----------------|----------------|
B|----------------|----------------|-8-8-8-8-8-8-8-8|-6-6-6-6-5-5-5-5|
G|----------------|-5-5-5-5-5-5-5-5|----------------|----------------|
D|----------------|----------------|----------------|----------------|
A|----------------|----------------|----------------|----------------|
E|----------------|----------------|----------------|----------------|
 |
 |(Guitar 2)
e|----------------|----------------|----------------|----------------|
B|----------------|----------------|----------------|----------------|
G|-6-6-6-6-6-6-6-6|----------------|----------------|----------------|
D|-6-6-6-6-6-6-6-6|-7-7-7-7-7-7-7-7|-9-9-9-9-9-9-9-9|10101010-9-9-9-9|
A|-4-4-4-4-4-4-4-4|-5-5-5-5-5-5-5-5|-7-7-7-7-7-7-7-7|-8-8-8-8-7-7-7-7|
E|----------------|----------------|----------------|----------------|

  (Guitar 1)
e|-5-5-5-5-5-5-5-5|----------------|----------------|----------------|
B|----------------|----------------|-6-6-6-6-6-6-6-6|-5-5-5-5-3-3-3-3|
G|----------------|-5-5-5-5-5-5-5-5|----------------|----------------|
D|----------------|----------------|----------------|----------------|
A|----------------|----------------|----------------|----------------|
E|----------------|----------------|----------------|----------------|
 |
 |(Guitar 2)
e|----------------|----------------|----------------|----------------|
B|----------------|----------------|----------------|----------------|
G|-6-6-6-6-6-6-6-6|----------------|----------------|----------------|
D|-6-6-6-6-6-6-6-6|-7-7-7-7-7-7-7-7|-9-9-9-9-9-9-9-9|10101010-9-9-9-9|
A|-4-4-4-4-4-4-4-4|-5-5-5-5-5-5-5-5|-7-7-7-7-7-7-7-7|-8-8-8-8-7-7-7-7|
E|----------------|----------------|----------------|----------------|

outro:
  (Guitar 1)
e|----------------|----------------|----------------|----------------|
B|----------------|----------------|----------------|----------------|
G|----------------|----------------|----------------|----------------|
D|---5-4-0~-------|-----4-5~-------|---5-4-0~-------|---------7-5-4--|
A|-2--------------|-2-5------------|-2--------------|---------------5|
E|----------------|----------------|----------------|----------------|
 |
 |(Guitar 2)
e|----------------|----------------|----------------|----------------|
B|----------------|----------------|----------------|----------------|
G|---------2---2--|----------------|---------2---2--|----------------|
D|---5-4-0---0---0|-----4-5-2---2--|---5-4-0---0---0|-----4-5-7-5-4--|
A|-2--------------|-2-5-------0---0|-2--------------|-2-5-----------5|
E|----------------|----------------|----------------|----------------|
  PM--------------|PM--------------|PM--------------|PM--------------|

  (Guitar 1)
e|----------------|----------------|----------------|----------------|
B|----------------|----------------|----------------|----------------|
G|----------------|----------------|----------------|---------------7|
D|---5-4-0~-------|-----4-5~-------|---5-4-0~-------|---------7-5-4-7|
A|-2--------------|-2-5------------|-2--------------|----------------|
E|----------------|----------------|----------------|----------------|
 |                                                                  +
 |(Guitar 2)
e|----------------|----------------|----------------|----------------|
B|----------------|----------------|----------------|----------------|
G|---------2---2--|----------------|---------4---4--|---------------7|
D|---5-4-0---0---0|-----4-5-2---2--|---5-4-0---2---2|-----4-5-7-5-4-7|
A|-2--------------|-2-5-------2---2|-2--------------|-2-5------------|
E|----------------|----------------|----------------|----------------|
  PM--------------|PM--------------|PM--------------|PM------------|+

                                  END

LYRICS: (Laid out in bars that match the length of the guitar bars, 
         empty bars are instrumental)
VERSE 1:
| I know i'm not alone | when i say i'm sick of this |        |        |
 I'm not the only one | coz there's a hundred more of us |        |        |
 Here we filled a room | with all of the things we hate |        |        |
 I feel pushed to the edge | a platform about to break |        |        |
CHORUS 1 (HALF CHORUS):
 We're at the end when | the walls come down | At the end of | a different story |
 It must be mine, there's no one | else around | so i'm sorry if it | all gets boring |
VERSE 2:
 |We're pressed up against the glass | because we can't get in |        |        |
 We push and we push | but it just ain't breaking |        |        |
 We all got together | because we felt rejected |        |        |
 Now you've taken the blame | is it all that you expected? |        |        |
 Empty picture frame | are you putting me up on it? |        |        |
 Here's your hall of fame is it all that you wanted? |        |        |
CHORUS 2:
 We're at the end when | the walls come down | At the end of a different story |
 It must be mine, there's no one | else around | so i'm sorry if it | all gets boring |
 At the end when the | roof caves in | i wish that it were someone | else's life |
 We're so cold | weary and thin | it's a miracle we're | still alive |
BRIDGE: (ALL INSTRUMENTAL)
FINAL CHORUS:
 We're at the end when | the walls come down | At the end of a different story |
 It must be mine, there's no one | else around | so i'm sorry if it | all gets boring |
 At the end when the | roof caves in | i wish that it were someone | else's life |
 We're so cold | weary and thin | it's a miracle we're | still alive |

                                  END

Low Altitude Sickness is: Bass: Morgan
                          Guitar: Henry
                          Drums: Charles

************************************

| /   slide up
| \   slide down
| h   hammer-on
| p   pull-off
| ~   vibrato
| +   harmonic
| x   Mute note
| b   Bend
| pb  Pre-bend
| br  Bend release
| pbr Pre-bend release
| brb Bend release bend

************************************
Tap to rate this tab
# A B C D E F G H I J K L M N O P Q R S T U V W X Y Z