Song name
# A B C D E F G H I J K L M N O P Q R S T U V W X Y Z

Misc Unsigned Bands - Low Altitude Sickness - I Can Help You tab

-------------------------------------------------------------------------------
			     I CAN HELP YOU - Low Altitude Sickness
-------------------------------------------------------------------------------
Guitar Written & Tabbed by: Henry
Lyrics (included at bottom of page) Written by: Henry

Email: smallandmighty@live.co.uk

Tuning: Standard (EADGBe)

Played with distortion

INTRO:

e|--------------------------------|--------------------------------|
B|--------------------------------|--------------------------------|
G|12----12----121214------15--14--|10----10----101012------14------|
D|-x-----x-----x-x-x-------x---x--|-x-----x-----x-x-x-------x------|
A|10----10----101012------13--12--|-8-----8-----8-810------12------|
E|--------------------------------|--------------------------------|


e|--------------------------------|--------------------------------|
B|--------------------------------|--------------------------------|
G|12----12----121214------15--14--|10----10----101012------14------|
D|-x-----x-----x-x-x-------x---x--|-x-----x-----x-x-x-------x------|
A|10----10----101012------13--12--|-8-----8-----8-810------12------|
E|--------------------------------|--------------------------------|


e|--------------------------------|
B|--------------------------------|
G|--------------------------------|
D|-\\\\\\\\\\\\\\\\---------------|
A|-\\\pickslide\\\\---------------|
E|-\\\\\\\\\\\\\\\\---------------|

VERSE 1:

e|--------------------------------|--------------------------------|
B|--------------------------------|--------------------------------|
G|--------------------------------|--------------------------------|
D|-----------------7-7-7-7-7-7-7-7|-----------------7-7-7-7-7-7-7-7|
A|-9-9-9-9-9-9-9-9-7-7-7-7-7-7-7-7|-7-7-7-7-7-7-7-7-7-7-7-7-7-7-7-7|
E|-7-7-7-7-7-7-7-7----------------|-5-5-5-5-5-5-5-5----------------|
  PM------------------------------|PM------------------------------|

e|--------------------------------|--------------------------------|
B|--------------------------------|--------------------------------|
G|--------------------------------|--------------------------------|
D|-----------------7-7-7-7-7-7-7-7|-----------------7-7-7-7-7-7-7-7|
A|-9-9-9-9-9-9-9-9-7-7-7-7-7-7-7-7|-7-7-7-7-7-7-7-7-7-7-7-7-7-7-7-7|
E|-7-7-7-7-7-7-7-7----------------|-5-5-5-5-5-5-5-5----------------|
  PM------------------------------|PM------------------------------|

e|--------------------------------|--------------------------------|
B|--------------------------------|--------------------------------|
G|--------------------------------|--------------------------------|
D|-----------------7-7-7-7-7-7-7-7|-9-9-9-9-9-9-9-9-9-9-9-9-9-9-9-9|
A|-9-9-9-9-9-9-9-9-7-7-7-7-7-7-7-7|-7-7-7-7-7-7-7-7-7-7-7-7-7-7-7-7|
E|-7-7-7-7-7-7-7-7----------------|--------------------------------|


e|--------------------------------|--------------------------------|
B|--------------------------------|--------------------------------|
G|--------------------------------|--------------------------------|
D|-----------------7-7-7-7-7-7-7-7|-9-9-9-9-9-9-9-9-9-9-9-9-9-9-9-9|
A|-9-9-9-9-9-9-9-9-7-7-7-7-7-7-7-7|-7-7-7-7-7-7-7-7-7-7-7-7-7-7-7-7|
E|-7-7-7-7-7-7-7-7----------------|--------------------------------|


PRECHORUS 1:

e|--------------------------------|--------------------------------|
B|--------------------------------|--------------------------------|
G|--------------------------------|--------------------------------|
D|-3-3-3-3-3-5-5-5---4~-----------|-5-5-5-5-5-7-7-7---4~-----------|
A|-------------------4~-----------|-------------------4~-----------|
E|-------------------2~-----------|-------------------2~-----------|


e|--------------------------------|--------------------------------|
B|--------------------------------|--------------------------------|
G|--------------------------------|--------------------------------|
D|-7-7-7-7-7-9-9-9----------------|-5-5-5-5------------------------|
A|----------------1010101010121212|---------7-7-7-7-5-5-5-5-7-7-7-7|
E|--------------------------------|--------------------------------|

CHORUS 1:

e|--------------------------------|--------------------------------|
B|--------------------------------|--------------------------------|
G|-4-4-4-4-4-4-4-4-5-5-5----------|-4-4-4-4-4-4-4-4-5-5-5----------|
D|-4-4-4-4-4-4-4-4-5-5-5-4-4-4-2--|-4-4-4-4-4-4-4-4-5-5-5-4-4-4-2--|
A|-2-2-2-2-2-2-2-2-3-3-3-4-4-4-2--|-2-2-2-2-2-2-2-2-3-3-3-4-4-4-2--|
E|-----------------------2-2-2-0--|-----------------------2-2-2-0--|


e|--------------------------------|--------------------------------|
B|--------------------------------|--------------------------------|
G|-4-4-4-4-4-4-4-4-6-6-6----------|-4-4-4-4-4-4-4-4-6-6-6----------|
D|-4-4-4-4-4-4-4-4-6-6-6-7-7-7-5--|-4-4-4-4-4-4-4-4-6-6-6-7-7-7-5~-|
A|-2-2-2-2-2-2-2-2-4-4-4-7-7-7-5--|-2-2-2-2-2-2-2-2-4-4-4-7-7-7-5~-|
E|-----------------------5-5-5-3--|-----------------------5-5-5-3~-|


e|--------------------------------|--------------------------------|
B|--------------------------------|--------------------------------|
G|-----------------7-----5-----4~-|(4)--4---4---4---\\\\\\\\\\\\\\\|
D|(5)--5---5---5---7-----5-----4~-|(4)--4---4---4---\\\pickslide\\\|
A|(5)--5---5---5---5-----3-----2~-|(2)--2---2---2---\\\\\\\\\\\\\\\|
E|(3)--3---3---3------------------|--------------------------------|

VERSE 2:

e|--------------------------------|--------------------------------|
B|--------------------------------|--------------------------------|
G|--------------------------------|--------------------------------|
D|-----------------7-7-7-7-7-7-7-7|-----------------7-7-7-7-7-7-7-7|
A|-9-9-9-9-9-9-9-9-7-7-7-7-7-7-7-7|-7-7-7-7-7-7-7-7-7-7-7-7-7-7-7-7|
E|-7-7-7-7-7-7-7-7----------------|-5-5-5-5-5-5-5-5----------------|
  PM------------------------------|PM------------------------------|

e|--------------------------------|--------------------------------|
B|--------------------------------|--------------------------------|
G|--------------------------------|--------------------------------|
D|-----------------7-7-7-7-7-7-7-7|-----------------7-7-7-7-7-7-7-7|
A|-9-9-9-9-9-9-9-9-7-7-7-7-7-7-7-7|-7-7-7-7-7-7-7-7-7-7-7-7-7-7-7-7|
E|-7-7-7-7-7-7-7-7----------------|-5-5-5-5-5-5-5-5----------------|
  PM------------------------------|PM------------------------------|

e|--------------------------------|--------------------------------|
B|--------------------------------|--------------------------------|
G|--------------------------------|--------------------------------|
D|-----------------7-7-7-7-7-7-7-7|-9-9-9-9-9-9-9-9~---------------|
A|-9-9-9-9-9-9-9-9-7-7-7-7-7-7-7-7|-7-7-7-7-7-7-7-7~---------------|
E|-7-7-7-7-7-7-7-7----------------|--------------------------------|


e|--------------------------------|--------------------------------|
B|--------------------------------|--------------------------------|
G|--------------------------------|--------------------------------|
D|-----------------7-7-7-7-7-7-7-7|-9-9-9-9-9-9-9-9-9-9-9-9-9-9-9-9|
A|-9-9-9-9-9-9-9-9-7-7-7-7-7-7-7-7|-7-7-7-7-7-7-7-7-7-7-7-7-7-7-7-7|
E|-7-7-7-7-7-7-7-7----------------|--------------------------------|


PRECHORUS 2:

e|--------------------------------|--------------------------------|
B|--------------------------------|--------------------------------|
G|--------------------------------|--------------------------------|
D|-3-3-3-3-3-5-5-5---4~-----------|-5-5-5-5-5-7-7-7---4~-----------|
A|-------------------4~-----------|-------------------4~-----------|
E|-------------------2~-----------|-------------------2~-----------|


e|--------------------------------|--------------------------------|
B|--------------------------------|--------------------------------|
G|--------------------------------|--------------------------------|
D|-7-7-7-7-7-9-9-9----------------|-5-5-5-5------------------------|
A|----------------1010101010121212|---------7-7-7-7-5-5-5-5-7-7-7-7|
E|--------------------------------|--------------------------------|

CHORUS 2:

e|--------------------------------|--------------------------------|
B|--------------------------------|--------------------------------|
G|-4-4-4-4-4-4-4-4-5-5-5----------|-4-4-4-4-4-4-4-4-5-5-5----------|
D|-4-4-4-4-4-4-4-4-5-5-5-4-4-4-2--|-4-4-4-4-4-4-4-4-5-5-5-4-4-4-2--|
A|-2-2-2-2-2-2-2-2-3-3-3-4-4-4-2--|-2-2-2-2-2-2-2-2-3-3-3-4-4-4-2--|
E|-----------------------2-2-2-0--|-----------------------2-2-2-0--|


e|--------------------------------|--------------------------------|
B|--------------------------------|--------------------------------|
G|-4-4-4-4-4-4-4-4-6-6-6----------|-4-4-4-4-4-4-4-4-6-6-6----------|
D|-4-4-4-4-4-4-4-4-6-6-6-7-7-7-5--|-4-4-4-4-4-4-4-4-6-6-6-7-7-7-5~-|
A|-2-2-2-2-2-2-2-2-4-4-4-7-7-7-5--|-2-2-2-2-2-2-2-2-4-4-4-7-7-7-5~-|
E|-----------------------5-5-5-3--|-----------------------5-5-5-3~-|


e|--------------------------------|--------------------------------|
B|--------------------------------|--------------------------------|
G|-----------------7-----5-----4~-|(4)--4---4---4---\\\\\\\\\\\\\\\|
D|(5)--5---5---5---7-----5-----4~-|(4)--4---4---4---\\\pickslide\\\|
A|(5)--5---5---5---5-----3-----2~-|(2)--2---2---2---\\\\\\\\\\\\\\\|
E|(3)--3---3---3------------------|--------------------------------|

BRIDGE:

e|--------------------------------|--------------------------------|
B|--------------------------------|--------------------------------|
G|-7---x-7---x-7-------------9~---|-7---x-7---x-7-------------7~---|
D|-7---x-7---x-7-----7---9--------|-7---x-7---x-7-----5---7--------|
A|-5---x-5---x-5---7---7---7------|-5---x-5---x-5---5---5---5------|
E|--------------------------------|--------------------------------|


e|--------------------------------|--------------------------------|
B|--------------------------------|--------------------------------|
G|-7---x-7---x-7-------------5~---|-7---x-7---x-7---3-3-3-3-3-3-3-3|
D|-7---x-7---x-7-----3---5--------|-7---x-7---x-7---3-3-3-3-3-3-3-3|
A|-5---x-5---x-5---3---3---3------|-5---x-5---x-5---1-1-1-1-1-1-1-1|
E|--------------------------------|--------------------------------|

FINAL (DOUBLE) CHORUS + OUTRO:

e|--------------------------------|--------------------------------|
B|--------------------------------|--------------------------------|
G|-4-4-4-4-4-4-4-4-5-5-5----------|-4-4-4-4-4-4-4-4-5-5-5----------|
D|-4-4-4-4-4-4-4-4-5-5-5-4-4-4-2--|-4-4-4-4-4-4-4-4-5-5-5-4-4-4-2--|
A|-2-2-2-2-2-2-2-2-3-3-3-4-4-4-2--|-2-2-2-2-2-2-2-2-3-3-3-4-4-4-2--|
E|-----------------------2-2-2-0--|-----------------------2-2-2-0--|


e|--------------------------------|--------------------------------|
B|--------------------------------|--------------------------------|
G|-4-4-4-4-4-4-4-4-6-6-6----------|-4-4-4-4-4-4-4-4-6-6-6----------|
D|-4-4-4-4-4-4-4-4-6-6-6-7-7-7-5--|-4-4-4-4-4-4-4-4-6-6-6-7-7-7-5~-|
A|-2-2-2-2-2-2-2-2-4-4-4-7-7-7-5--|-2-2-2-2-2-2-2-2-4-4-4-7-7-7-5~-|
E|-----------------------5-5-5-3--|-----------------------5-5-5-3~-|


e|--------------------------------|--------------------------------|
B|--------------------------------|--------------------------------|
G|-7-7-7-7-7-7-7-7-5-5-5----------|-7-7-7-7-7-7-7-7-5-5-5----------|
D|-7-7-7-7-7-7-7-7-5-5-5-4-4-4-2--|-7-7-7-7-7-7-7-7-5-5-5-4-4-4-2--|
A|-5-5-5-5-5-5-5-5-3-3-3-4-4-4-2--|-5-5-5-5-5-5-5-5-3-3-3-4-4-4-2--|
E|-----------------------2-2-2-0--|-----------------------2-2-2-0--|


e|--------------------------------|--------------------------------|
B|--------------------------------|--------------------------------|
G|-7-7-7-7-7-7-7-7-6-6-6----------|-7-7-7-7-7-7-7-7-6-6-6----------|
D|-7-7-7-7-7-7-7-7-6-6-6-7-7-7-5--|-7-7-7-7-7-7-7-7-6-6-6-7-7-7-5~-|
A|-5-5-5-5-5-5-5-5-4-4-4-7-7-7-5--|-5-5-5-5-5-5-5-5-4-4-4-7-7-7-5~-|
E|-----------------------5-5-5-3--|-----------------------5-5-5-3~-|


e|--------------------------------|--------------------------------|
B|--------------------------------|--------------------------------|
G|-----------------7-----5-----4~-|(4)--4---4---4------------------|
D|(5)--5---5---5---7-----5-----4~-|(4)--4---4---4---7-----5-----4~-|
A|(5)--5---5---5---5-----3-----2~-|(2)--2---2---2---5-----3-----2~-|
E|(3)--3---3---3------------------|--------------------------------|


e|--------------------------------|--------------------------------|
B|--------------------------------|--------------------------------|
G|--------------------------------|--------------------------------|
D|(4)--4---4---4------------------|--------------------------------|
A|(2)--2---2---2---5-----3-----2~-|(2)--2---2---2---3-----2-----0~-|
E|--------------------------------|--------------------------------|

                                 END

LYRICS: (separated into bars that match the length of the guitar bars,
           and empty bars are instrumental)

VERSE 1:
| Is there anybody else out there | who fell asleep in a different place |
 Is there anybody else out there | who woke up to a different face |
 Is there anybody else out there | who feels like they've gone to waste |
 Is there anybody else out there | who would like to set the pace |

PRECHORUS 1:
Is it different for everyone, do we all just fit in place |
Is it different for everyone, are we running the same old race |
        |        |

CHORUS 1:
Run with me, and i will follow you | Scream with me, I'll be your echo |
Wish with me, and we will soon be free | Come with me, and cure insanity |
        |        |

VERSE 2:
Is there somebody out there | who's trying to tamper with the locks |
Is there somebody out there | who's trying to break into the box |
Is there somebody out there | who's not happy with what they've got |
Is there somebody out there | is there anyone that i forgot |

PRECHORUS 2:
Is everyone the same, do we rust away like robots |
Is everyone the same, tin men made of nuts and bolts |
        |        |

CHORUS 2:
Run with me, and i will follow you | Scream with me, I'll be your echo |
Wish with me, and we will soon be free | Come with me, and cure insanity |
        |        |

BRIDGE: (all instrumental)

FINAL (DOUBLE) CHORUS:
Run with me, and i will follow you | Scream with me, I'll be your echo |
Wish with me, and we will soon be free | Come with me, and cure insanity |
Run with me, and i will follow you | Scream with me, I'll be your echo |
Wish with me, that we won't fall too | Come with me, coz I can help you |
                                  END

Low Altitude Sickness is: Bass - Morgan
                          Guitar - Henry
                          Drums - Charles


************************************

| /   slide up
| \   slide down
| h   hammer-on
| p   pull-off
| ~   hold note
| ( ) held note from previous bar
| +   harmonic
| x   Mute note
| b   Bend
| pb  Pre-bend
| br  Bend release
| pbr Pre-bend release
| brb Bend release bend

************************************
Tap to rate this tab
 
# A B C D E F G H I J K L M N O P Q R S T U V W X Y Z