Song name
# A B C D E F G H I J K L M N O P Q R S T U V W X Y Z

Misc Unsigned Bands - Pavlos Linardos - Min Me Ksexassis tab

Pavlos Linardos - Min me Ksexassis.


Intro:
-----------------------------------------------|
--------------------------------------------10-|
------6-7-------6-7---4-4-4---6-7-------6-7----|
--4-4-----7---4-----7-------4-----7---4--------|
-----------------------------------------------|
-----------------------------------------------|

Verse:
G   A   Bm (repeat until end verse)


Chorus:
G   A   A   Bm (2x)
G   A   A7  Bm (2x)

-----------------------------------------------|
--------------------------------------------10-|
------6-7-------6-7---4-4-4---6-7-------6-7----|
--4-4-----7---4-----7-------4-----7---4--------|
-----------------------------------------------|
-----------------------------------------------|

Verse:
G   A   Bm (repeat until end verse)


Chorus:
G   A   A   Bm (2x)
G   A   A7  Bm (2x)

Solo:
-----------5^^-5^^-5^^---5h7p5-------5------------------------------|
-----------------------7-------7---7---7-5h7-5-5-5-5-5-5---7\0------|
--4-6-4-7------------------------7-----------------------7----------|
--------------------------------------------------------------------|
--------------------------------------------------------------------|
--------------------------------------------------------------------|

------------------5---------10---------------------------------|
----------------7---7-10-12----10-12-12------------------------|
--4-7-4-7-4-7-4------------------------------------------------|
---------------------------------------------------------------|
---------------------------------------------------------------|
---------------------------------------------------------------|

Chorus
G   A   A   Bm (2x)
G   A   A7  Bm (2x)

Outro:
------------------------------------|
------------------------------------|
------6-7-------6-7---4-------------|
--4-4-----7---4-----7---------------|
------------------------------------|
------------------------------------|

If there are any mistakes, tell me!
Tap to rate this tab
# A B C D E F G H I J K L M N O P Q R S T U V W X Y Z