Song name
# A B C D E F G H I J K L M N O P Q R S T U V W X Y Z

Misc Unsigned Bands - Finabah- Killing For Bad Dreams tab

Easy, but awesome sounding song :)

Intro/Verse (Clean):

e|------------------------------------------------------|
B|------------------------------------------------------|
G|------------------------------------------------------|
D|--3---5-xx2xxx3----3---5-xx2xxx3----------------------| X4
A|--3---5-xx3xxx3----3---5-xx3xxx3-----3h5-5------------|
D|--3---5-xx2xxx3----3---5-xx2xxx3-3h5------------------|


At the end of the fourth time, instead of playing the little hammer-on part play:
e|------------------------------------------------------|
B|------------------------------------------------------|
G|------------------------------------------------------|
D|-------2----------------------------------------------|
A|-----3------------------------------------------------|
D|---2-----3--------------------------------------------|

Chorus 1:

e|------------------------------------------------------|
B|------------------------------------------------------|
G|------------------------------------------------------|
D|--3--------5--------7--------5------------------------|
A|--3--------5--------7--------5------------------------|
D|--3--------5--------7--------5------------------------|

Repeat Intro/Verse

Chorus 2 (Distortion):

e|---------------------------------------------------------|
B|---------------------------------------------------------|
G|---------------------------------------------------------|
D|--3----3---3--xx5---5---5--xx7---7---7-xx5-5-5-5-5-5-5-5-|
A|--3----3---3--xx5---5---5--xx7---7---7-xx5-5-5-5-5-5-5-5-|
D|--3----3---3-xx5---5---5--xx7---7---7-xx5-5-5-5-5-5-5-5-|
    PM ----------------|

Bridge:

e|---------------------------------------------------------------------|
B|---------------------------------------------------------------------|
G|------------------3-3-3---------------------------3-3-3--------------|
D|--3-3-3-5-5-5-5-5-3-3-3-3-3-3-3-3-3-3-3-5-5-5-5-5-3-3-3-3-3-3-3-3----|
A|--3-3-3-5-5-5-5-5-1-1-1-3-3-3-3-3-3-3-3-5-5-5-5-5-1-1-1-3-3-3-3-3----|
D|--3-3-3-5-5-5-5-5-------3-3-3-3-3-3-3-3-5-5-5-5-5-------3-3-3-3-3----|

e|---------------------------------------------------------------------|
B|---------------------------------------------------------------------|
G|--2-2-2-----------3-3-3-----------2-2-2-----------3-3-3--------------|
D|--2-2-2-5-5-5-5-5-3-3-3-3-3-3-3-3-2-2-2-5-5-5-5-5-3-3-3-3-3-3-3-3----|
A|--0-0-0-5-5-5-5-5-1-1-1-3-3-3-3-3-0-0-0-5-5-5-5-5-1-1-1-3-3-3-3-3----|
D|--------5-5-5-5-5-------3-3-3-3-3-------5-5-5-5-5-------3-3-3-3-3----|




Chorus 3:

e|------------------------------------------------------|
B|------------------------------------------------------|
G|------------------------------------------------------|
D|--3--------5--------7--------5-5-5-5-5-5-5-5----------|
A|--3--------5--------7--------5-5-5-5-5-5-5-5----------|
D|--3--------5--------7--------5-5-5-5-5-5-5-5----------|
                               PM------------|

e|----------------------------------------------------------------------|
B|----------------------------------------------------------------------|
G|----------------------------------------------------------------------|
D|-3-3-3-3-3-3-3-3-5-5-5-5-5-5-5-5-7-7-7-7-7-7-7-7-5-5-5-5-5-5-5-5------|
A|-3-3-3-3-3-3-3-3-5-5-5-5-5-5-5-5-7-7-7-7-7-7-7-7-5-5-5-5-5-5-5-5------|
D|-3-3-3-3-3-3-3-3-5-5-5-5-5-5-5-5-7-7-7-7-7-7-7-7-5-5-5-5-5-5-5-5------|
                                                 PM---------------|


Repeat Bridge

During the bridge there is a second guitar that plays:

e|------------------------------------------------------------------------|
B|------------------------------------------------------------------------|
G|------5h7-9-5----7--5----5h7-9-5---7--5-----12h14-16-12--141617-12------|
D|----7----------5-------7---------5-------14-----------------------------|
A|------------------------------------------------------------------------|
D|------------------------------------------------------------------------|


Outro:

Repeat Intro/Verse x 1



Tap to rate this tab
 
# A B C D E F G H I J K L M N O P Q R S T U V W X Y Z