Song name
# A B C D E F G H I J K L M N O P Q R S T U V W X Y Z

Misc Unsigned Bands - Pachelbel - Canon Acoustic tab

Easy lang na ai part..its not really hard you know..hehe

Intro:
(/) Slide Up  (\) Slide Down  (h) Hammer On  (p) Pull Off  (b) Bend (r) Release (v) Vibrato

E|--0-----------------0-------1----------1-------------1----3---------------------------|
B|---------3-----1-----------------1----------1------------------3--------0-------------|
G|-----------------------------------------------2--------------------0-----------------|
D|--------------------------------------------------------------------------------------|
A|--3------------0-----------------3----------------------------------------------------|
E|---------3----------0-------1----------1------------------3---------------------------|



E|---------0----------------------------------------------------------------------------|
B|--1----------1-------------3------------------1-----------------------0---------------|
G|------0-----------0-------------0---2-------------2-------0-----------------0---------|
D|----------------------0------------------2---------------------2----------------------|
A|--3---------------------------------0-------------------------------------------------|
E|------------------3---------------------------------------0---------------------------|



E|--0------------0------------3---------------------------------------------------------|
B|-------1-----------3------------3----1---------3------1----0--------1------0----------|
G|-----------0-----------0------------------2---------------------0---------------------|
D|--------------------------------------------------------------------------------------|
A|--3----------------------------------0------------------------------------------------|
E|-------------------3---------------------------------------0--------------------------|



E|--0-----------0------------3----------------------------------------------------------|
B|------1-----------3------------3----1---------3----1-----0----------1-------0---------|
G|----------0-----------0------------------2--------------------0-----------------------|
D|--------------------------------------------------------------------------------------|
A|--3---------------------------------0-------------------------------------------------|
E|------------------3--------------------------------------0----------------------------|



E|--------------------------------------------------------------------------------------|
B|--------------------------------------------------------------------------------------|
G|--2------------2----0-------------0------2-------------2----4------4-----5------7-----|
D|-------3----------------2---------------------3---------------------------------------|
A|-----------3--------3--------3---------------------3----------------------------------|
E|--1--------------------------------------1------------------3-------------------------|



E|--0------------0-----------3------------------0------------3--------3-------5---------|
B|-------1----------3-----------3-----1--------------0(1)-------------------------------|
G|-----------0----------0-----------------2-----------------------0---------------------|
D|--------------------------------------------------------------------------------------|
A|--3---------------------------0-------------------------------------------------------|
E|------------------3----------------------------------------0--------------------------|



E|--1----0-------1----0--------------------------------1-------0------------------------|
B|----------3-------------3-----1-----------------------------------0-------------------|
G|----------------------------------0----2----0--------------------------0--------------|
D|--------------------------------------------------3-----------------------------------|
A|--------------------------------------------------------------------------------------|
E|--1-----------------3-----------------------------------------------------------------|



E|----------------------------------------------------------0-----3----------3----5-----|
B|--1----0----1-------------------------------1----0----1-------------------------------|
G|----------------------0-----0----2----4-------------------------------0---------------|
D|--------------------------------------------------------------------------------------|
A|--3-----------------------------------------0-----------------------------------------|
E|-----------------0----3-----------------------------------------0---------------------|



E|--1-----0----------1-----0----------------------1-------0----------1---------3---------|
B|--------------3---------------3-------1----------------------3-------------------------|
G|-------------------------------------------0-------------------------------------------|
D|---------------------------------------------------------------------------------------|
A|---------------------------------------------------------------------------------------|
E|--1----------------------3----------------------1----------------------------3---------|
Tap to rate this tab
# A B C D E F G H I J K L M N O P Q R S T U V W X Y Z