Song name
# A B C D E F G H I J K L M N O P Q R S T U V W X Y Z

Misc Unsigned Bands - Infamous Nobody- Carpe Diem tab

Intro/Chorus  Riff A

(Guitar 1)  {distorted}
e|---------------------------------------------------------------|
B|---------------------------------------------------------------|
G|-----------------7-9-10-7-9-10-7-9-----------------------------|
D|7-9-10-7-9-10-7-9-----------------10-12-14-10-12-14-10-12------|
A|---------------------------------------------------------------|
D|---------------------------------------------------------------|

e|---------------------------------------------------------------|
B|---------------------------------------------------------------|
G|---------------------------------------------------------------|
D|14-12-10-14-12-10--6~------------------------------------------|
A|---------------------------------------------------------------|
D|---------------------------------------------------------------|

(Guitar 2) {distorted}*Brackets show how many times to play the chord shown before.
e|---------------------------------------------------------------|
B|---------------------------------------------------------------|
G|---------------------------------------------------------------|
D|7-----12-----5-----2-----9-7-5-4-------------------------------|
A|7-(x8)12-(x8)5-(x8)2-(x4)7-5-3-2-------------------------------|
D|7-----12-----5-----2-------------------------------------------|

(Verse 1) Riff B
(Guitars 1 & 2 clean)
e|---------------------------------------------------------------|
B|---------------------------------------------------------------|
G|5--------------9-------------------4-------------10-------10---|
D|7-7-7-7-7-7-7-10-10-10-10-10-10-10-5-5-5-5-5-5-5-12-12-12-12---|
A|---------------------------------------------------------------|
D|---------------------------------------------------------------|

e|---------------------------------------------------------------|
B|---------------------------------------------------------------|
G|5--------------9-------------------4-------------1-----1-------|
D|7-7-7-7-7-7-7-10-10-10-10-10-10-10-5-5-5-5-5-5-5-2-2-2-2-------|
A|---------------------------------------------------------------|
D|---------------------------------------------------------------|

(Pre-chorus) Riff C
(Guitar 1 clean)
e|---------------------------------------------------------------|
B|---------------------------------------------------------------|
G|5-5-5-5-5-5-5-5-12-12-12-12-12-12-12-12-7-7-7-7-7-7-7-7-9-9-9-9|
D|3-3-3-3-3-3-3-3-10-10-10-10-10-10-10-10-5-5-5-5-5-5-5-5-7-7-7-7|
A|---------------------------------------------------------------|
D|---------------------------------------------------------------|

e|---------------------------------------------------------------|
B|---------------------------------------------------------------|
G|7-7-7-7--------------------------------------------------------|
D|5-5-5-5--------------------------------------------------------|
A|---------------------------------------------------------------|
D|---------------------------------------------------------------|
Repeat that 3 times then follow the bass with:
e|---------------------------------------------------------------|
B|---------------------------------------------------------------|
G|-5-------4-4-4-4--8-8-8-8--------------------------------------|
D|-3-(x16)-2-2-2-2--6-6-6-6--------------------------------------|
A|---------------------------------------------------------------|
D|---------------------------------------------------------------|

(Guitar 2 clean)
e|---------------------------------------------------------------|
B|---------------------------------------------------------------|
G|---------------------------------------------------------------|
D|3-----10-----5-----7-7-5-5-------------------------------------|
A|3-(x4)10-(x4)5-(x4)7-7-5-5-------------------------------------|
D|3-----10-----5-----7-7-5-5-------------------------------------|
Repeat that 3 times then:

e|---------------------------------------------------------------|
B|---------------------------------------------------------------|
G|---------------------------------------------------------------|
D|3-----2--------------------------------------------------------|
A|3-(x8)2-(x8)---------------------------------------------------|
D|3-----2--------------------------------------------------------|
Chorus =Riff A
Verse 2 =Riff B
Pre-chorus = Riff C
Chorus = Riff A
Solo backing: Guitars 1 & 2
e|---------------------------------------------------------------|
B|---------------------------------------------------------------|
G|5--------------9-------------------4-------------10-------10---|
D|7-7-7-7-7-7-7-10-10-10-10-10-10-10-5-5-5-5-5-5-5-12-12-12-12---|
A|---------------------------------------------------------------|
D|---------------------------------------------------------------|
e|---------------------------------------------------------------|
B|---------------------------------------------------------------|
G|5--------------9-------------------4-------------10-------10---|
D|7-7-7-7-7-7-7-10-10-10-10-10-10-10-5-5-5-5-5-5-5-12-12-12-12---|
A|---------------------------------------------------------------|
D|---------------------------------------------------------------|
e|---------------------------------------------------------------|
B|---------------------------------------------------------------|
G|---------------------------------------------------------------|
D|7-------------10-------------------5------------7-5-4-5--------|
A|7-------------10-------------------5------------5-3-2-3--------|
D|7-7-7-7-7-7-7-10-10-10-10-10-10-10-5-5-5-5-5-5-5---------------|
e|---------------------------------------------------------------|
B|---------------------------------------------------------------|
G|---------------------------------------------------------------|
D|7-------------10--------------------5-------------2-2----------|
A|7-------------10--------------------5-------------2-2----------|
D|7-7-7-7-7-7-7-10-10-10-1010-10-10-5-5-5-5-5-5-5-2-2-----------|
(Chorus)
Outro
(Guitar 1 clean)
e|---------------------------------------------------------------|
B|---------------------------------------------------------------|
G|5-------------7-------------10--------------------9--9--9------|
D|7-7-7-7-7-7-7-9-9-9-9-9-9-9-12-12-12-12-12-12-12-10-10-10------|
A|---------------------------------------------------------------|
D|---------------------------------------------------------------|
e|---------------------------------------------------------------|
B|---------------------------------------------------------------|
G|10-10-10-10-10-------------------------------------------------|
D|9--9--9--9--9--------------------------------------------------|
A|---------------------------------------------------------------|
D|---------------------------------------------------------------|
Guitar 2 clean
e|---------------------------------------------------------------|
B|---------------------------------------------------------------|
G|---------------------------------------------------------------|
D|7-------------9-------------12-------------------10-10-10------|
A|7-------------9-------------12-------------------10-10-10------|
D|7-7-7-7-7-7-7-9-9-9-9-9-9-9-12-12-12-12-12-12-12-10-10-10------|
e|---------------------------------------------------------------|
B|---------------------------------------------------------------|
G|---------------------------------------------------------------|
D|9-9-9-9-9------------------------------------------------------|
A|9-9-9-9-9------------------------------------------------------|
D|9-9-9-9-9------------------------------------------------------|
Tap to rate this tab
# A B C D E F G H I J K L M N O P Q R S T U V W X Y Z