Song name
# A B C D E F G H I J K L M N O P Q R S T U V W X Y Z

Misc Unsigned Bands - Phthisis - Delirium Tremens tab

e|------------------------------------------------------|
B|------------------------------------------------------|
G|------------------------------------------------------|
D|---5---5---5---8---8---8---7---7---7---10---10---10---|
A|-9---9---9---------------6---6---6---9----9----9------|
E|-------------5---5---5--------------------------------|

gtr2
e|------------------------------------------------------|
B|---3---3---3---6---6---6---------------8----8----8----|
G|-6---6---6-----------------9---9---9-6----6----6------|
D|-------------2---2---2---8---8---8--------------------|
A|------------------------------------------------------|
E|------------------------------------------------------|

Gtr1
e|----------------------------0--------------------------|
B|-------6-----------6--------6--------------------------|
G|-----3---3-------3---3------3--------------------------|
D|---4-------4---4-------4----4--------------------------|
A|-5-----------5--------------5--------------------------|
E|-------------------------------------------------------|

Gtr2
e|-------------------------------------------------------|
B|-------------------------------------------------------|
G|-------------------------------------------------------|
Dl/4----------8-7------------/11^^^^^--------------------|
A|------5-4----------8-7---------------------------------|
E|-------------------------------------------------------|
Gtr1
e|------------------------------------------------------|
B|------------------------------------------------------|
G|------------------------------------------------------|
D|---5---5---5---8---8---8---7---7---7---10---10---10---|
A|-9---9---9---------------6---6---6---9----9----9------|
E|-------------5---5---5--------------------------------|

gtr2
e|------------------------------------------------------|
B|---3---3---3---6---6---6---------------8----8----8----|
G|-6---6---6-----------------9---9---9-6----6----6------|
D|-------------2---2---2---8---8---8--------------------|
A|------------------------------------------------------|
E|------------------------------------------------------|

Gtr1
e|----------------------------0--------------------------|
B|-------6-----------6--------6--------------------------|
G|-----3---3-------3---3------3--------------------------|
D|---4-------4---4-------4----4--------------------------|
A|-5-----------5--------------5--------------------------|
E|-------------------------------------------------------|

Gtr2
e|-----------------------------1311----------------------|
B|---------------------------------12-----------/16------|
G|-----------------/11^^^^^----------1311----------------|
Dl/4----------8-7------------------------1210------------|
A|------5-4----------------------------------119---------|
E|-------------------------------------------------------|

Gtr1
e|------------------------------------------------------|
B|------------------------------------------------------|
G|------------------------------------------------------|
D|---5---5---5---8---8---8---7---7---7---10---10---10---|
A|-9---9---9---------------6---6---6---9----9----9------|
E|-------------5---5---5--------------------------------|

gtr2
e|------------------------------------------------------|
B|---3---3---3---6---6---6---------------8----8----8----|
G|-6---6---6-----------------9---9---9-6----6----6------|
D|-------------2---2---2---8---8---8--------------------|
A|------------------------------------------------------|
E|------------------------------------------------------|

Gtr1
e|----------------------------0--------------------------|
B|-------6-----------6--------6--------------------------|
G|-----3---3-------3---3------3--------------------------|
D|---4-------4---4-------4----4--------------------------|
A|-5-----------5--------------5--------------------------|
E|-------------------------------------------------------|

Gtr2
e|-------------------------------------------------------|
B|-------------------------------------------------------|
G|-------------------------------------------------------|
Dl/4----------8-7------------/11^^^^^--------------------|
A|------5-4----------8-7---------------------------------|
E|-------------------------------------------------------|

Gtr1
e|--------------------------------------------15------------15--------|
B|----------------------------------------11-----1415-1011-----1415-11|
G|-------------------------0-0-0-0--0--0----12------------12----------|
D|--------------65-5-------6-6-6-6--6--6------------------------------|
A|-0-0-0-0---467--7-6746----------------------------------------------|
E|-4-4-4-4467-----------4---------------------------------------------|

Gtr2
e|--------------------------------------------10------------10--------|
B|----------------------------------------7------9-10-6-7------9-10-6-|
G|-------------------------0-0-0-9--8--4----8-------------8-----------|
D|-------------------------6-6-6/-------------------------------------|
A|-0--0--0--0--0--0--0--0--------7--6--2------------------------------|
E|-4--4--4--4--4--4--4--4---------------------------------------------

Gtr1
e|------------------------------------------------------15---------15------|
B|---------------------------------------------------11---1415-1011--141511
G|--------------------------------------0-0-0-0--0--0--12---------12-------|
D|--------141311- 1311------------------6-6-6-6--6--6----------------------|
A|-0-0-0-0------14---14131113111011107-------------------------------------|
E|-4-4-4-4-----------------------------------------------------------------|


Gtr2
e|------------------------------------------------------10---------10----
B|---------------------------------------------------7----9-10-6-7---9-10-6|
G|--------------------------------------0-0-0-13-12-9-8-----------8--------|
D|--------------------------------------6-6-6/-----------------------------
A|-0--0--0----0------0----0----0----0---------11-10-7----------------------|
E|-4--4--4----4------4----4----4----4--------------------------------------

Gtr 1&2
e|-5-------------8-------------------|
B|-4-------------10------------------|
G|-5-------------9-------------------|
D|-----------------------------------|
A|-----------------------------------|
E|-----------------------------------|

Gtr 1&2                                                          2xs
e|------------------------------------------------------------------|
B|--------------1112-1112-1112-1112---------------------------------|
G|-9--9--10--10-1011-1011-1011-1011--9--9--10--10------4----6----7--|
D|-----------------------------------------------------5----7----8--|
A|-8--8--9---9--9-10-9-10-9-10-9-10--8--8--9---9-------3----5----6--|
E|-----------------------------------------------4444444-6666-7777--|

Gtr1
e|------------------------------------------------------------------|
B|--------------1112-1112-1112-1112---------------------------------|
G|-9--9--10--10-1011-1011-1011-1011--9--9--10--10------4----6----7--|
D|-----------------------------------------------------5----7----8--|
A|-8--8--9---9--9-10-9-10-9-10-9-10--8--8--9---9-------3----5----6--|
E|-----------------------------------------------4444444-6666-7777--|

Gtr2
e|------------------------------------------------------------------|
B|--------------1314-1314-1314-1314---------------------------------|
G|-12-12-13--13-1213-1213-1213-1213--12-12-13-13-------4----6----7--|
D|-----------------------------------------------------5----7----8--|
A|-11-11-12--12-1112-1112-1112-1112--11-11-12-12-------3----5----6--|
E|-----------------------------------------------4444444-6666-7777--|

Gtr1
e|--------------------------------------------10----------10--------|
B|------------------------------------------7---9-10-6-7----9-10-6--|
G|------------------------0--0--0--0--0--0---8-----------8----------|
D|------------------------6--6--6--6--6--6--------------------------|
A|-0--0--0--0--0--0--0--0-------------------------------------------|
E|-4--4--4--4--4--4--4--4-------------------------------------------|

Gtr2
e|--------------------------------------------22----------22--------|
B|-----------------------------------------19---2122-1617---2122-16-|
G|-------------------------------------------20----------20---------|
D|------------------------------------------------------------------|
A|------------------------------------------------------------------|
E|------------------------------------------------------------------|

Gtr1
e|------------------------------------------------------|
B|------------------------------------------------------|
G|------------------------------------------------------|
D|---5---5---5---8---8---8---7---7---7---10---10---10---|
A|-9---9---9---------------6---6---6---9----9----9------|
E|-------------5---5---5--------------------------------|

gtr2
e|------------------------------------------------------|
B|---3---3---3---6---6---6---------------8----8----8----|
G|-6---6---6-----------------9---9---9-6----6----6------|
D|-------------2---2---2---8---8---8--------------------|
A|------------------------------------------------------|
E|------------------------------------------------------|

Gtr1
e|----------------------------0--------------------------|
B|-------6-----------6--------6--------------------------|
G|-----3---3-------3---3------3--------------------------|
D|---4-------4---4-------4----4--------------------------|
A|-5-----------5--------------5--------------------------|
E|-------------------------------------------------------|

Gtr2
e|-------------------------------------------------------|
B|-------------------------------------------------------|
G|-------------------------------------------------------|
Dl/4----------8-7------------/11^^^^^--------------------|
A|------5-4----------8-7---------------------------------|
E|-------------------------------------------------------|

Gtr1
e|------------------------------------------------------|
B|------------------------------------------------------|
G|------------------------------------------------------|
D|---5---5---5---8---8---8---7---7---7---10---10---10---|
A|-9---9---9---------------6---6---6---9----9----9------|
E|-------------5---5---5--------------------------------|

gtr2
e|------------------------------------------------------|
B|---3---3---3---6---6---6---------------8----8----8----|
G|-6---6---6-----------------9---9---9-6----6----6------|
D|-------------2---2---2---8---8---8--------------------|
A|------------------------------------------------------|
E|------------------------------------------------------|

Gtr1
e|----------------------------0--------------------------|
B|-------6-----------6--------6--------------------------|
G|-----3---3-------3---3------3--------------------------|
D|---4-------4---4-------4----4--------------------------|
A|-5-----------5--------------5--------------------------|
E|-------------------------------------------------------|

Gtr2
e|-----------------------------1311----------------------|
B|---------------------------------12-----------/16------|
G|-----------------/11^^^^^----------1311----------------|
Dl/4----------8-7------------------------1210------------|
A|------5-4----------------------------------119---------|
E|-------------------------------------------------------|

Gtr1
e|------------------------------------------------------|
B|------------------------------------------------------|
G|------------------------------------------------------|
D|---5---5---5---8---8---8---7---7---7---10---10---10---|
A|-9---9---9---------------6---6---6---9----9----9------|
E|-------------5---5---5--------------------------------|

gtr2
e|------------------------------------------------------|
B|---3---3---3---6---6---6---------------8----8----8----|
G|-6---6---6-----------------9---9---9-6----6----6------|
D|-------------2---2---2---8---8---8--------------------|
A|------------------------------------------------------|
E|------------------------------------------------------|

Gtr1
e|----------------------------0--------------------------|
B|-------6-----------6--------6--------------------------|
G|-----3---3-------3---3------3--------------------------|
D|---4-------4---4-------4----4--------------------------|
A|-5-----------5--------------5--------------------------|
E|-------------------------------------------------------|

Gtr2
e|-------------------------------------------------------|
B|-------------------------------------------------------|
G|---------------------------/11^^^^^--------------------|
Dl/4----------8-7----------------------------------------|
A|------5-4----------8-7---------------------------------|
E|-------------------------------------------------------|

Gtr 1&2                                                          2xs
e|------------------------------------------------------------------|
B|--------------1112-1112-1112-1112---------------------------------|
G|-9--9--10--10-1011-1011-1011-1011--9--9--10--10------4----6----7--|
D|-----------------------------------------------------5----7----8--|
A|-8--8--9---9--9-10-9-10-9-10-9-10--8--8--9---9-------3----5----6--|
E|-----------------------------------------------4444444-6666-7777--|

Gtr1
e|------------------------------------------------------------------|
B|--------------1112-1112-1112-1112---------------------------------|
G|-9--9--10--10-1011-1011-1011-1011--9--9--10--10------4----6----7--|
D|-----------------------------------------------------5----7----8--|
A|-8--8--9---9--9-10-9-10-9-10-9-10--8--8--9---9-------3----5----6--|
E|-----------------------------------------------4444444-6666-7777--|

Gtr2
e|------------------------------------------------------------------|
B|--------------1314-1314-1314-1314---------------------------------|
G|-12-12-13--13-1213-1213-1213-1213--12-12-13-13-------4----6----7--|
D|-----------------------------------------------------5----7----8--|
A|-11-11-12--12-1112-1112-1112-1112--11-11-12-12-------3----5----6--|
E|-----------------------------------------------4444444-6666-7777--|

Gtr 1&2
e|-----------------------------------------------------------------|
B|-----------------------------------------------------------------|
G|-----------------------------------------------------------------|
D|------------------5--4--3---------------8---4---12---4-----------|
A|-54-43--787575454-35-24-13--787575454----------------------------|
E|-320210-565353232--30-20-10-565353232---6---2---10---2-----------

Gtr 1&2
e|---------------------------------------------------------------------|
B|---------------------------------------------------------------------|
G|---------------------------------------------------------------------|
D|---------------------------------------------------------------------|
A|--6---65--555--5-5-5--5-5-5--6---65-555-5-5-6---65-555-5-5-5-5-5-5---|
E|--3-0-32--222--2-2-2--2-2-2--3-0-32-222-2-2-3-0-32-222-2-2-2-2-2-2---|

Gtr1
e|---------------------12----12----12----12-----12*-----------|
B|---7-----------------12----12----12----12--------12*--------|
G|--6-------10--109----10----10----10----10-----------12*-----|
D|-7-------------------10----10----10----10--------------12*--|
A|----8-----8-0-8-7----8-----8-----8-----8--------------------|
E|------000---------000---000---000---000---000---------------|

Gtr2
e|-----------------------12----12----12----12-----12*-----------|
B|----10-----------------12----12----12----12--------12*--------|
G|---9-------------------10----10----10----10-----------12*-----|
D|-10---------15--1514---10----10----10----10--------------12*--|
A|------11---------------8-----8-----8-----8--------------------|
E|--------000-130-1312000---000---000---000---000---------------|

Gtr 1&2                        2xs
e|-----------------0--------------|
B|-----------------0--------------|
G|-/7---3----------0--------------|
D|--------5--2------------3-------|
A|-/5---1----2------------2-------|
E|----0---3--0-000---000--1--000--|

e|------------------------------|
B|------------------------------|
G|-9-9-9-9-9-9-8-8-8-8-8-8-8-8--|
D|-------------7-7-7-7-7-7-7-7--|
A|-7-7-7-7-7-7-6-6-6-6-6-6-6-6--|
E|------------------------------|


Gtr 1&2                        2xs
e|-----------------0--------------|
B|-----------------0--------------|
G|-/7---3----------0--------------|
D|--------5--2------------3-------|
A|-/5---1----2------------2-------|
E|----0---3--0-000---000--1--000--|

e|--------------------------------|
B|--------------------------------|
G|-7-7-7-7-7-7-6-6-6-6-6-6-6-6----|
D|-5-5-5-5-5-5-4-4-4-4-4-4-4-4----|
A|-6-6-6-6-6-6-5-5-5-5-5-5-5-5----|
E|-6-6-6-6-6-6-5-5-5-5-5-5-5-4----|
Tap to rate this tab
 
# A B C D E F G H I J K L M N O P Q R S T U V W X Y Z