Song name
# A B C D E F G H I J K L M N O P Q R S T U V W X Y Z

Misc Unsigned Bands - Fallen Paradise - I Expect Nothing Less tab

-----------------------------------------------------------------------------
			     I EXPECT NOTHING LESS - Fallen Paradise
-----------------------------------------------------------------------------
Tabbed by: Daniel Byrne
Email: danielbyrnefp@yahoo.com

Tuning: Drop D

[Guitar 1 - Clean/Slight Delay + Reverb]
[Guitar 2 - Medium - Heavy Distortion/Slight Delay]

*Drum Intro*

Guitar Enters...

Guitar 1
e|--------3--2----3--2--0h2~---------3--2----3--2----3-2-0-2----------------|
B|33333333-33-3333-33-33-----33333333-33-3333-33-3333-3-3-3-----------------|
G|--------------------------------------------------------------------------|
D|--------------------------------------------------------------------------|
A|--------------------------------------------------------------------------|
D|--------------------------------------------------------------------------|

Guitar 2:                             ^^Feedback

(Chorus Instrumental)
Guitar 1
e|--------------------------------------------------------------------------|
B|--------------------------------------------------------------------------|
G|--------------------------------------------------------------------------|
D|--55-----33-----00-----------55-----33-----88-----------------------------|
A|--55-----33-----00-----------55-----33-----88-----------------------------|
D|--55-----33-----00-----------55-----33-----88-----------------------------|

Guitar 2:
e|--------------------------------------------------------------------------|
B|--15-----13-----10------------15-----13----18-----------------------------|
G|--17b----15b----12b-----------17b----15b---20b----------------------------|
D|--------------------------------------------------------------------------|
A|--------------------------------------------------------------------------|
D|--------------------------------------------------------------------------|

(Verse)
Both Guitars                                                            (x2)
e|--------------------------------------------------------------------------|
B|--------------------------------------------------------------------------|
G|-----------------------(x4)-----------------------------------------------|
D|-----55-35---xxxxxxxxxxxx----55-35-xxx-3----------------------------------|
A|-----55-35---xxxxxxxxxxxx----55-35-xxx-3----------------------------------|
D|-----55-35---xxxxxxxxxxxx----55-35-xxx-3----------------------------------|

(Chorus)
Guitar 1
e|--------------------------------------------------------------------------|
B|--------------------------------------------------------------------------|
G|--------------------------------------------------------------------------|
D|--55-----33-----00-----------55-----33-----88-----------------------------|
A|--55-----33-----00-----------55-----33-----88-----------------------------|
D|--55-----33-----00-----------55-----33-----88-----------------------------|

Guitar 2:
e|--------------------------------------------------------------------------|
B|--15-----13-----10------------15-----13----18-----------------------------|
G|--17b----15b----12b-----------17b----15b---20b----------------------------|
D|--------------------------------------------------------------------------|
A|--------------------------------------------------------------------------|
D|--------------------------------------------------------------------------|

(Verse)
Both Guitars                                                            (x2)
e|--------------------------------------------------------------------------|
B|--------------------------------------------------------------------------|
G|-----------------------(x4)-----------------------------------------------|
D|-----55-35---xxxxxxxxxxxx----55-35-xxx-3----------------------------------|
A|-----55-35---xxxxxxxxxxxx----55-35-xxx-3----------------------------------|
D|-----55-35---xxxxxxxxxxxx----55-35-xxx-3----------------------------------|

(Chorus)
Guitar 1
e|--------------------------------------------------------------------------|
B|--------------------------------------------------------------------------|
G|--------------------------------------------------------------------------|
D|--55-----33-----00-----------55-----33-----88-----------------------------|
A|--55-----33-----00-----------55-----33-----88-----------------------------|
D|--55-----33-----00-----------55-----33-----88-----------------------------|

Guitar 2:
e|--------------------------------------------------------------------------|
B|--15-----13-----10------------15-----13----18-----------------------------|
G|--17b----15b----12b-----------17b----15b---20b----------------------------|
D|--------------------------------------------------------------------------|
A|--------------------------------------------------------------------------|
D|--------------------------------------------------------------------------|

(Verse)
Both Guitars                                                            (x2)
e|--------------------------------------------------------------------------|
B|--------------------------------------------------------------------------|
G|-----------------------(x4)-----------------------------------------------|
D|-----55-35---xxxxxxxxxxxx----55-35-xxx-3----------------------------------|
A|-----55-35---xxxxxxxxxxxx----55-35-xxx-3----------------------------------|
D|-----55-35---xxxxxxxxxxxx----55-35-xxx-3----------------------------------|

(Chorus)
Guitar 1
e|--------------------------------------------------------------------------|
B|--------------------------------------------------------------------------|
G|--------------------------------------------------------------------------|
D|--55-----33-----00-----------55-----33-----88-----------------------------|
A|--55-----33-----00-----------55-----33-----88-----------------------------|
D|--55-----33-----00-----------55-----33-----88-----------------------------|

Guitar 2:
e|--------------------------------------------------------------------------|
B|--15-----13-----10------------15-----13----18-----------------------------|
G|--17b----15b----12b-----------17b----15b---20b----------------------------|
D|--------------------------------------------------------------------------|
A|--------------------------------------------------------------------------|
D|--------------------------------------------------------------------------|

(Guitar Solo)

Guitar 1
e|--------------------------------------------------------------------------|
B|--------------------------------------------------------------------------|
G|-----------------------(x4)-----------------------------------------------|
D|-----55-35---xxxxxxxxxxxx----55-35-xxx-3----------------------------------|
A|-----55-35---xxxxxxxxxxxx----55-35-xxx-3----------------------------------|
D|-----55-35---xxxxxxxxxxxx----55-35-xxx-3----------------------------------|

Guitar 2
e|--------------------------------------------------------------------------|
B|--------------------------------------------------------------------------|
G|-----------------------(x4)-----------------------------------------------|
D|-----55-35---xxxxxxxxxxxx----55-35-xxx-3----------------------------------|
A|-----55-35---xxxxxxxxxxxx----55-35-xxx-3----------------------------------|
D|-----55-35---xxxxxxxxxxxx----55-35-xxx-3----------------------------------|

Guitar 1
e|--------------------------------------------------------------------------|
B|--------------------------------------------------------------------------|
G|-----------------------(x4)-----------------------------------------------|
D|-----55-35---xxxxxxxxxxxx----55-35-xxx-3----------------------------------|
A|-----55-35---xxxxxxxxxxxx----55-35-xxx-3----------------------------------|
D|-----55-35---xxxxxxxxxxxx----55-35-xxx-3----------------------------------|

Guitar 2
e|--------------------------------------------------------------------------|
B|---15-15-15-15-15-15-15-15-15-15-15-15-15-15-15-15------------------------|
G|---17b17b17b17b17b17b17b17b17b17b17b17b17b17b17b17b----17br 17br--17br----|
D|-----------------------------------------------------14----14---14--------|
A|--------------------------------------------------------------------------|
D|--------------------------------------------------------------------------


    (Tremelo and Hammer-Ons 
     with Pull-Offs
          ^
           \
            \
            |
e|-(15-18)------17b~~~~-----------------------------------------------------|
B|-(-17br)------------------------------------------------------------------|
G|--------------------------------------------------------------------------|
D|--------------------------------------------------------------------------|
A|--------------------------------------------------------------------------|
D|--------------------------------------------------------------------------|

(Chorus)

Guitar 1
e|--------------------------------------------------------------------------|
B|--------------------------------------------------------------------------|
G|--------------------------------------------------------------------------|
D|--55-----33-----00-----------55-----33-----88-----------------------------|
A|--55-----33-----00-----------55-----33-----88-----------------------------|
D|--55-----33-----00-----------55-----33-----88-----------------------------|

Guitar 2:
e|--------------------------------------------------------------------------|
B|--15-----13-----10------------15-----13----18-----------------------------|
G|--17b----15b----12b-----------17b----15b---20b----------------------------|
D|--------------------------------------------------------------------------|
A|--------------------------------------------------------------------------|
D|--------------------------------------------------------------------------|



************************************

| /   slide up
| \   slide down
| h   hammer-on
| p   pull-off
| ~   vibrato
| +   harmonic
| x   Mute note
| b   Bend
| pb  Pre-bend
| br  Bend release
| pbr Pre-bend release
| brb Bend release bend

************************************
Tap to rate this tab
# A B C D E F G H I J K L M N O P Q R S T U V W X Y Z