Song name
# A B C D E F G H I J K L M N O P Q R S T U V W X Y Z

Misc Unsigned Bands - Nanoripe - Saibou Kioku tab

This is the Lead Guitar tab for nano.RIPE's song Saibou Kioku, from their single with 
the same name.
It's all been tabbed out by me, Vinter.
Be sure to rate and comment, I put a lot of effort into this.
And check out the Chord version of Saibou Kioku, for Comp Guitar here on 
UltimateGuitar.com by clicking my name and selecting 'Contributions'.

Guitar tuned half a step down.

d#
A#
F#
C#
G#
D#


Verse: 0:00-0:29
Nothing to play here.



Bridge: 0:29-0:38
e|-------------------------------------------------------|
B|---------------------------7-------7----7/10-9---------|
G|-4/9-8-----------------8-------8---------------11-9-7~-|
D|-------9-7/11-9----------9---9---9---9-----------------|
A|----------------9/11-----------------------------------|
E|-------------------------------------------------------|



Refrain: 0:40-1:05                              x4
e|---------------------------------------------|
B|-12-12-----12-12-----12-12------------9h10p9-|
G|-------9-9-------9-9-------9-9--11-11--------|
D|---------------------------------------------|
A|---------------------------------------------|
E|---------------------------------------------|



Prelude: 1:05-1:17
e|----------------------------------|------------------------------|
B|-9---------9---------12--12---11~-|------9---12---12----10-10-9~-|
G|---9-11-9----9-11-9----9---9--9~~-|----9---9----9----9--9--9--9~-|
D|------------------------------11~-|-11------------------9--9--9~-|
A|----------------------------------|---------------------7--7--7~-|
E|----------------------------------|------------------------------|



Verse: 1:18-1:42 x3
  pm.................................
e|-----------------|-----------------|
B|-------7---------|-----------------|
G|-9-9-----9-9-----|---9---8---9---8-|
D|-----9-------9-9-|-9---9---9---9---|
A|-----------------|-----------------|
E|-----------------|-----------------|

                 x3
  pm.....................................
e|-----------------|---------------------|
B|-------7---------|-12-10-9-10-9--------|
G|-9-9-----9-9-----|--------------11-9---|
D|-----9-------9-9-|-------------------9-|
A|-----------------|---------------------|
E|-----------------|---------------------|

                 x3
  pm.................................
e|-----------------|-----------------|
B|-------7---------|-----------------|
G|-9-9-----9-9-----|---9---8---9---8-|
D|-----9-------9-9-|-9---9---9---9---|
A|-----------------|-----------------|
E|-----------------|-----------------|

  pm...............
e|-----------------|------------|
B|-------7---------|-9~--10~-9~-|
G|-9-9-----9-9-----|-9~--9~--9~-|
D|-----9-------9-9-|-9~--9~--9~-|
A|-----------------|-7~--7~--7~-|
E|-----------------|------------|




Solo: 1:43-2:05
e|-------------------------------------------------|
B|-0h2/4/5-5/7-7/9-9/10-10/12-12/14-14/16-16/17-17-|
G|-------------------------------------------------|
D|-------------------------------------------------|
A|-------------------------------------------------|
E|-------------------------------------------------|

e|-------------------------------------------|
B|-17-17/16-16/14-14/12-12/10-10/9-9/7-7/5-5-|
G|-------------------------------------------|
D|-------------------------------------------|
A|-------------------------------------------|
E|-------------------------------------------|

e|----------------------------------------------------------19~-|
B|-5-5/7-7/9-9/10-10/12-12/14-14/16-16/17-17/19-19-19-19~~--17~-|
G|----------------------------------------------------------16~-|
D|--------------------------------------------------------------|
A|--------------------------------------------------------------|
E|--------------------------------------------------------------|



Bridge: 2:08-2:20
Nothing to play here.



Refrain: 2:21-2:51
          x3		           x3              x2
e|----------|-------------|----------|------------|
B|----------|-------------|----------|------------|
G|---9-11-9-|-11-11-13-13-|---9-11-9-|-11-13-11-9-|
D|-9--------|-------------|-9--------|------------|
A|----------|-------------|----------|------------|
E|----------|-------------|----------|------------|

          x3
e|----------|-----------|
B|----------|-----------|
G|---9-11-9-|-11-11-9-9-|
D|-9--------|-----------|
A|----------|-----------|
E|----------|-----------|



Refrain #2: 2:52-3:10
e|------- --9---11----12---14---16---17-----19--17--16--12---14----|
B|-12--12----10---13----12---12---12---12-----------------12---16~-|
G|---9---13--------------------------------------------------------|
D|-----------------------------------------------------------------|
A|-----------------------------------------------------------------|
E|-----------------------------------------------------------------|



Prelude: 3:10-3:22
e|-----------------------------------|------------------------------------|
B|-9---------9---------12---12---11~-|------9---12---12---9---9-----------|
G|---9-11-9----9-11-9----9----9--9~~-|----9---9----9----9---9---9--11--9~-|
D|-------------------------------11~-|-11-------------------------9---9---|
A|-----------------------------------|------------------------------------|
E|-----------------------------------|------------------------------------|



Outro: 3:32-4:05
e|---9-----------------12--11-11-9--------|
B|-----12---9------9-----9---------9-12-9-|
G|-9------9---9-11------------------------|
D|----------------------------------------|
A|----------------------------------------|
E|----------------------------------------|

e|----------14-14--12-11----------------|
B|-9-9-12-12-------------12-9/12-9----9-|
G|---------------------------------11---|
D|--------------------------------------|
A|--------------------------------------|
E|--------------------------------------|

e|---9-----------------12--11---9--------|
B|-----12---9------9-----9----9---9-12-9-|
G|-9------9---9-11-----------------------|
D|---------------------------------------|
A|---------------------------------------|
E|---------------------------------------|

e|----------14-14--12-11---------------|
B|-9-9-12-12------------12-9-----------|
G|---------------------------11-9-8h9~-|
D|-------------------------------------|
A|-------------------------------------|
E|-------------------------------------|

e|-----------4---4----4~-|
B|-------5----5---5---5~-|
G|-----6---6----6--6--6~-|
D|---7----------------7~-|
A|-0---------------------|
E|-----------------------|
Tap to rate this tab
# A B C D E F G H I J K L M N O P Q R S T U V W X Y Z