Song name
# A B C D E F G H I J K L M N O P Q R S T U V W X Y Z

Misc Unsigned Bands - Low Altitude Sickness - Alternate tab

-------------------------------------------------------------------------------
		    ALTERNATE - Low Altitude Sickness
-------------------------------------------------------------------------------
Guitar Written & Tabbed by: Henry
Lyrics Written by: Henry
Email: smallandmighty@live.co.uk

Tuning: Standard (EADGBe)

Played with distortion (except the bridge)

Lyrics at the bottom of the page

INTRO PART I:
e|--------------------------------|--------------------------------|
B|--------------------------------|--------------------------------|
G|-----------------2~-------------|-----------------6~-------------|
D|-----------------2~-------------|-----------------6~-------------|
A|-----------------0~-------------|-----------------4~-------------|
E|-0-0-0-0-0-0-0-0----------------|-5-5-5-5-5-5-5-5----------------|
  PM--------------|                PM--------------|

e|--------------------------------|--------------------------------|
B|--------------------------------|--------------------------------|
G|-----------------8~-------------|-----------------4~-------------|
D|-----------------8~-------------|-----------------4~-------------|
A|-----------------6~-------------|-----------------2~-------------|
E|-7-7-7-7-7-7-7-7----------------|-3-3-3-3-3-3-3-3----------------|
  PM--------------|                PM--------------|

e|--------------------------------|--------------------------------|
B|--------------------------------|--------------------------------|
G|-----------------2~-------------|-----------------6~-------------|
D|-----------------2~-------------|-----------------6~-------------|
A|-----------------0~-------------|-----------------4~-------------|
E|-0-0-0-0-0-0-0-0----------------|-5-5-5-5-5-5-5-5----------------|
  PM--------------|                PM--------------|

e|--------------------------------|--------------------------------|
B|--------------------------------|--------------------------------|
G|-----------------8~-------------|-----------------4~-------------|
D|-----------------8~-------------|-----------------4~-------------|
A|-----------------6~-------------|-----------------2~-------------|
E|-7-7-7-7-7-7-7-7----------------|-3-3-3-3-3-3-3-3----------------|
  PM--------------|                PM--------------|

INTRO PART II:
e|---4-------4-------4------------|---4-------4-------4------------|
B|-------6-------6-------6---7---6|-------6-------6-------6---7---6|
G|-6-------6-------6-------6------|-6-------6-------6-------6------|
D|--------------------------------|--------------------------------|
A|--------------------------------|--------------------------------|
E|--------------------------------|--------------------------------|


e|-------4-------4-------4--------|-------4-------4-------4--------|
B|---4-------4-------4-------6---7|---4-------4-------4-----7-6-4--|
G|-6-------6-------6-------6------|-6-------6-------6-------------6|
D|--------------------------------|--------------------------------|
A|--------------------------------|--------------------------------|
E|--------------------------------|--------------------------------|


VERSE 1:
e|--------------------------------|--------------------------------|
B|--------------------------------|--------------------------------|
G|(6)-----------------------------|-----------------7-7-7-7-7-7-7-7|
D|--------------------------------|-----------------7-7-7-7-7-7-7-7|
A|--------------------------------|-----------------5-5-5-5-5-5-5-5|
E|--------------------------------|--------------------------------|


e|--------------------------------|--------------------------------|
B|--------------------------------|--------------------------------|
G|-5~-----------------------------|-----------------5-5-5-5-5-5-5-5|
D|-5~-----------------------------|-----------------5-5-5-5-5-5-5-5|
A|-3~-----------------------------|-----------------3-3-3-3-3-3-3-3|
E|--------------------------------|--------------------------------|


e|--------------------------------|--------------------------------|
B|--------------------------------|--------------------------------|
G|-7-7-7-7-7-7-7-7-7-7-7-7-7-7-7-7|-7-7-7-7-7-7-7-7-7-7-7-7-7-7-7-7|
D|-7-7-7-7-7-7-7-7-7-7-7-7-7-7-7-7|-5-5-5-5-5-5-5-5-7-7-7-7-7-7-7-7|
A|-5-5-5-5-5-5-5-5-5-5-5-5-5-5-5-5|-5-5-5-5-5-5-5-5-5-5-5-5-5-5-5-5|
E|--------------------------------|--------------------------------|
    PM----------------------------|  PM------------|

e|--------------------------------|--------------------------------|
B|--------------------------------|--------------------------------|
G|-5-5-5-5-5-5-5-5-5-5-5-5-5-5-5-5|-5-5-5-5-5-5-5-5-5-5-5-5-5-5-5-5|
D|-5-5-5-5-5-5-5-5-5-5-5-5-5-5-5-5|-3-3-3-3-3-3-3-3-5-5-5-5-5-5-5-5|
A|-3-3-3-3-3-3-3-3-3-3-3-3-3-3-3-3|-3-3-3-3-3-3-3-3-3-3-3-3-3-3-3-3|
E|--------------------------------|--------------------------------|
    PM----------------------------|  PM------------|

PRECHORUS 1:
e|--------------------------------|--------------------------------|
B|-3-3-------------3-3------------|-5-5-------------5-5------------|
G|-----5-5-4-4---------5-5-4-4----|-----7-7-6-6---------6-6-7-7----|
D|-------------5-5-------------5-5|-------------7-7-------------7-7|
A|--------------------------------|--------------------------------|
E|--------------------------------|--------------------------------|


CHORUS 1:
e|--------------------------------|--------------------------------|
B|--------------------------------|--------------------------------|
G|-2-2-2-2-2-2-2-2-2-2-2-2-2-2-2-2|-6-6-6-6-6-6-6-6-6-6-6-6-6-6-6-6|
D|-2-2-2-2-2-2-2-2-2-2-2-2-2-2-2-2|-6-6-6-6-6-6-6-6-6-6-6-6-6-6-6-6|
A|-0-0-0-0-0-0-0-0-0-0-0-0-0-0-0-0|-4-4-4-4-4-4-4-4-4-4-4-4-4-4-4-4|
E|--------------------------------|--------------------------------|


e|--------------------------------|--------------------------------|
B|--------------------------------|--------------------------------|
G|-8-8-8-8-8-8-8-8-8-8-8-8-8-8-8-8|-4-4-4-4-4-4-4-4-4-4-4-4-4-4-4-4|
D|-8-8-8-8-8-8-8-8-8-8-8-8-8-8-8-8|-4-4-4-4-4-4-4-4-4-4-4-4-4-4-4-4|
A|-6-6-6-6-6-6-6-6-6-6-6-6-6-6-6-6|-2-2-2-2-2-2-2-2-2-2-2-2-2-2-2-2|
E|--------------------------------|--------------------------------|


e|--------------------------------|--------------------------------|
B|--------------------------------|--------------------------------|
G|-2-2-2-2-2-2-2-2-2-2-2-2-2-2-2-2|-6-6-6-6-6-6-6-6-6-6-6-6-6-6-6-6|
D|-2-2-2-2-2-2-2-2-2-2-2-2-2-2-2-2|-6-6-6-6-6-6-6-6-6-6-6-6-6-6-6-6|
A|-0-0-0-0-0-0-0-0-0-0-0-0-0-0-0-0|-4-4-4-4-4-4-4-4-4-4-4-4-4-4-4-4|
E|--------------------------------|--------------------------------|


e|--------------------------------|--------------------------------|
B|--------------------------------|--------------------------------|
G|-8-8-8-8-8-8-8-8-8-8-8-8-8-8-8-8|-4-4-4-4-4-4-4-4-4-4-4-4-4-4-4-4|
D|-8-8-8-8-8-8-8-8-8-8-8-8-8-8-8-8|-4-4-4-4-4-4-4-4-4-4-4-4-4-4-4-4|
A|-6-6-6-6-6-6-6-6-6-6-6-6-6-6-6-6|-2-2-2-2-2-2-2-2-2-2-2-2-2-2-2-2|
E|--------------------------------|--------------------------------|


POST-CHORUS 1:
e|--------------------------------|--------------------------------|
B|-3-3-------------3-3------------|-7-7-------------7-7------------|
G|-----5-5-4-4---------5-5-4-4----|-----9-9-8-8---------9-9-8-8----|
D|-------------5-5-------------5-5|-------------9-9-------------9-9|
A|--------------------------------|--------------------------------|
E|--------------------------------|--------------------------------|
  PM------------------------------|

e|--------------------------------|--------------------------------|
B|--------------------------------|--------------------------------|
G|--------------------------------|--------------------------------|
D|-9-9-9-9-9-9-9-91111111111111111|-9--11---9---7~-----------------|
A|-7-7-7-7-7-7-7-7-9-9-9-9-9-9-9-9|-7---9---7---5~-----------------|
E|--------------------------------|--------------------------------|


VERSE 2:
e|--------------------------------|--------------------------------|
B|--------------------------------|--------------------------------|
G|-7~-----------------------------|-----------------7-7-7-7-7-7-7-7|
D|-7~-----------------------------|-----------------7-7-7-7-7-7-7-7|
A|-5~-----------------------------|-----------------5-5-5-5-5-5-5-5|
E|--------------------------------|--------------------------------|


e|--------------------------------|--------------------------------|
B|--------------------------------|--------------------------------|
G|-5~-----------------------------|-----------------5-5-5-5-5-5-5-5|
D|-5~-----------------------------|-----------------5-5-5-5-5-5-5-5|
A|-3~-----------------------------|-----------------3-3-3-3-3-3-3-3|
E|--------------------------------|--------------------------------|


e|--------------------------------|--------------------------------|
B|--------------------------------|--------------------------------|
G|-7-7-7-7-7-7-7-7-7-7-7-7-7-7-7-7|-7-7-7-7-7-7-7-7-7-7-7-7-7-7-7-7|
D|-7-7-7-7-7-7-7-7-7-7-7-7-7-7-7-7|-5-5-5-5-5-5-5-5-7-7-7-7-7-7-7-7|
A|-5-5-5-5-5-5-5-5-5-5-5-5-5-5-5-5|-5-5-5-5-5-5-5-5-5-5-5-5-5-5-5-5|
E|--------------------------------|--------------------------------|
    PM----------------------------|  PM------------|

e|--------------------------------|--------------------------------|
B|--------------------------------|--------------------------------|
G|-5-5-5-5-5-5-5-5-5-5-5-5-5-5-5-5|-5-5-5-5-5-5-5-5-5-5-5-5-5-5-5-5|
D|-5-5-5-5-5-5-5-5-5-5-5-5-5-5-5-5|-3-3-3-3-3-3-3-3-5-5-5-5-5-5-5-5|
A|-3-3-3-3-3-3-3-3-3-3-3-3-3-3-3-3|-3-3-3-3-3-3-3-3-3-3-3-3-3-3-3-3|
E|--------------------------------|--------------------------------|
    PM----------------------------|  PM------------|

PRECHORUS 2:
e|--------------------------------|--------------------------------|
B|-3-3-------------3-3------------|-5-5-------------5-5------------|
G|-----5-5-4-4---------5-5-4-4----|-----7-7-6-6---------6-6-7-7----|
D|-------------5-5-------------5-5|-------------7-7-------------7-7|
A|--------------------------------|--------------------------------|
E|--------------------------------|--------------------------------|


CHORUS 2:
e|--------------------------------|--------------------------------|
B|--------------------------------|--------------------------------|
G|-2-2-2-2-2-2-2-2-2-2-2-2-2-2-2-2|-6-6-6-6-6-6-6-6-6-6-6-6-6-6-6-6|
D|-2-2-2-2-2-2-2-2-2-2-2-2-2-2-2-2|-6-6-6-6-6-6-6-6-6-6-6-6-6-6-6-6|
A|-0-0-0-0-0-0-0-0-0-0-0-0-0-0-0-0|-4-4-4-4-4-4-4-4-4-4-4-4-4-4-4-4|
E|--------------------------------|--------------------------------|


e|--------------------------------|--------------------------------|
B|--------------------------------|--------------------------------|
G|-8-8-8-8-8-8-8-8-8-8-8-8-8-8-8-8|-4-4-4-4-4-4-4-4-4-4-4-4-4-4-4-4|
D|-8-8-8-8-8-8-8-8-8-8-8-8-8-8-8-8|-4-4-4-4-4-4-4-4-4-4-4-4-4-4-4-4|
A|-6-6-6-6-6-6-6-6-6-6-6-6-6-6-6-6|-2-2-2-2-2-2-2-2-2-2-2-2-2-2-2-2|
E|--------------------------------|--------------------------------|


e|--------------------------------|--------------------------------|
B|--------------------------------|--------------------------------|
G|-2-2-2-2-2-2-2-2-2-2-2-2-2-2-2-2|-6-6-6-6-6-6-6-6-6-6-6-6-6-6-6-6|
D|-2-2-2-2-2-2-2-2-2-2-2-2-2-2-2-2|-6-6-6-6-6-6-6-6-6-6-6-6-6-6-6-6|
A|-0-0-0-0-0-0-0-0-0-0-0-0-0-0-0-0|-4-4-4-4-4-4-4-4-4-4-4-4-4-4-4-4|
E|--------------------------------|--------------------------------|


e|--------------------------------|--------------------------------|
B|--------------------------------|--------------------------------|
G|-8-8-8-8-8-8-8-8-8-8-8-8-8-8-8-8|-4-4-4-4-4-4-4-4-4-4-4-4-4-4-4-4|
D|-8-8-8-8-8-8-8-8-8-8-8-8-8-8-8-8|-4-4-4-4-4-4-4-4-4-4-4-4-4-4-4-4|
A|-6-6-6-6-6-6-6-6-6-6-6-6-6-6-6-6|-2-2-2-2-2-2-2-2-2-2-2-2-2-2-2-2|
E|--------------------------------|--------------------------------|


POST-CHORUS 2:
e|--------------------------------|--------------------------------|
B|-3-3-------------3-3------------|-7-7-------------7-7------------|
G|-----5-5-4-4---------5-5-4-4----|-----9-9-8-8---------9-9-8-8----|
D|-------------5-5-------------5-5|-------------9-9-------------9-9|
A|--------------------------------|--------------------------------|
E|--------------------------------|--------------------------------|
  PM------------------------------|

e|--------------------------------|--------------------------------|
B|--------------------------------|--------------------------------|
G|--------------------------------|--------------------------------|
D|-9-9-9-9-9-9-9-91111111111111111|-9--11---9---7~-----------------|
A|-7-7-7-7-7-7-7-7-9-9-9-9-9-9-9-9|-7---9---7---5~-----------------|
E|--------------------------------|--------------------------------|


BRIDGE PART I: (clean)
e|---4-------4-------4------------|---4-------4-------4------------|
B|-------6-------6-------6---7---6|-------6-------6-------6---7---6|
G|-6-------6-------6-------6------|-6-------6-------6-------6------|
D|--------------------------------|--------------------------------|
A|--------------------------------|--------------------------------|
E|--------------------------------|--------------------------------|


e|-------4-------4-------4--------|-------4-------4-------4--------|
B|---4-------4-------4-------6---7|---4-------4-------4-----7-6-4--|
G|-6-------6-------6-------6------|-6-------6-------6--------------|
D|--------------------------------|--------------------------------|
A|--------------------------------|--------------------------------|
E|--------------------------------|--------------------------------|


e|--------------------------------|--------------------------------|
B|--11------11------11------------|--13------13------13------------|
G|------10------10------10--12--12|------12------12------12--14--14|
D|12------12------12------12------|15------15------15------15------|
A|--------------------------------|--------------------------------|
E|--------------------------------|--------------------------------|


e|--------------------------------|--------------------------------|
B|------11------11------11--------|------13------13------13--------|
G|--10------10------10------12--12|--12------12------12------14--14|
D|12------12------12------12------|15------15------15------15------|
A|--------------------------------|--------------------------------|
E|--------------------------------|--------------------------------|


BRIDGE PART II: (clean)
e|--------------------------------|--------------------------------|
B|--------------------------------|--------------------------------|
G|-9~--------------7~-------------|-5~--------------2~-------------|
D|-x---------------x--------------|-x---------------x--------------|
A|-7~--------------5~-------------|-3~--------------0~-------------|
E|--------------------------------|--------------------------------|


e|--------------------------------|--------------------------------|
B|--------------------------------|--------------------------------|
G|-9~--------------7~-------------|-5~--------------2~-------------|
D|-x---------------x--------------|-x---------------x--------------|
A|-7~--------------5~-------------|-3~--------------0~-------------|
E|--------------------------------|--------------------------------|


e|--------------------------------|--------------------------------|
B|--------------------------------|--------------------------------|
G|-9~--------------7~-------------|-5~--------------2~-------------|
D|-x---------------x--------------|-x---------------x--------------|
A|-7~--------------5~-------------|-3~--------------0~-------------|
E|--------------------------------|--------------------------------|

                                  (play this bar with distortion on)
e|--------------------------------|--------------------------------|
B|--------------------------------|--------------------------------|
G|-9~--------------7~-------------|-5-5-5-5-5-5-5-5-2-2-2-2-2-2-2-2|
D|-x---------------x--------------|-x-x-x-x-x-x-x-x-x-x-x-x-x-x-x-x|
A|-7~--------------5~-------------|-3-3-3-3-3-3-3-3-0-0-0-0-0-0-0-0|
E|--------------------------------|--------------------------------|


FINAL CHORUS:
e|--------------------------------|--------------------------------|
B|--------------------------------|--------------------------------|
G|-2-2-2-2-2-2-2-2-2-2-2-2-2-2-2-2|-6-6-6-6-6-6-6-6-6-6-6-6-6-6-6-6|
D|-2-2-2-2-2-2-2-2-2-2-2-2-2-2-2-2|-6-6-6-6-6-6-6-6-6-6-6-6-6-6-6-6|
A|-0-0-0-0-0-0-0-0-0-0-0-0-0-0-0-0|-4-4-4-4-4-4-4-4-4-4-4-4-4-4-4-4|
E|--------------------------------|--------------------------------|


e|--------------------------------|--------------------------------|
B|--------------------------------|--------------------------------|
G|-8-8-8-8-8-8-8-8-8-8-8-8-8-8-8-8|-4-4-4-4-4-4-4-4-4-4-4-4-4-4-4-4|
D|-8-8-8-8-8-8-8-8-8-8-8-8-8-8-8-8|-4-4-4-4-4-4-4-4-4-4-4-4-4-4-4-4|
A|-6-6-6-6-6-6-6-6-6-6-6-6-6-6-6-6|-2-2-2-2-2-2-2-2-2-2-2-2-2-2-2-2|
E|--------------------------------|--------------------------------|


e|--------------------------------|--------------------------------|
B|--------------------------------|--------------------------------|
G|-----------------2-2-2-2-2-2-2-2|-----------------6-6-6-6-6-6-6-6|
D|-----------------2-2-2-2-2-2-2-2|-----------------6-6-6-6-6-6-6-6|
A|-----------------0-0-0-0-0-0-0-0|-----------------4-4-4-4-4-4-4-4|
E|-0-0-0-0-0-0-0-0----------------|-5-5-5-5-5-5-5-5----------------|
  PM--------------|                PM--------------|

e|--------------------------------|--------------------------------|
B|--------------------------------|--------------------------------|
G|-----------------8-8-8-8-8-8-8-8|-----------------4-4-4-4-4-4-4~-|
D|-----------------8-8-8-8-8-8-8-8|-----------------4-4-4-4-4-4-4~-|
A|-----------------6-6-6-6-6-6-6-6|-----------------2-2-2-2-2-2-2~-|
E|-7-7-7-7-7-7-7-7----------------|-3-3-3-3-3-3-3-3----------------|
  PM--------------|                PM--------------|

e|--------------------------------|
B|--------------------------------|
G|(4)------------4--stop----------|
D|(4)------------4-chord----------|
A|(2)------------2--dead----------|
E|--------------------------------|

                                 END

LYRICS: (laid out in bars that match the length of the guitar bars,
           empty bars do not have singing in them)

INTRO: (both parts are all instrumental)
VERSE 1:
| You spoke to me last night at my | window, and I... |
tried to hold myself back, but i | couldn't resist you then. |
Coz you're my constant in a | moment of change. |
And, although it hurts me to say, I won't | see you again. |
PRECHORUS 1: (all instrumental)
CHORUS 1:
| Carry this wait on your own, i'm giving | up, i'm going home, back to |
where i wasn't haunted by these | memories unwanted. You've got a |
self-destructive thesis, leaving | me to pick up the pieces of the |
pictures of the people who I | left so long ago. |
POST-CHORUS 1:
        |        | 
I'd rather lose these wings, tighten these chains and stay here. |        |
PREVERSE: (all instrumental)
VERSE 2:
| I don't wanna get dragged away, so I | guess I'll just hide. |
But, I don't have the nerve, so i'll just | put up some resistance. |
Coz I hate seeing my world in its | moment of pain. |
And, although it hurts me to see, I must | be leaving here. |
PRECHORUS 2: (all instrumental)
CHORUS 2:
| Carry this wait on your own, i'm giving | up, i'm going home, back to |
where i wasn't haunted by these | memories unwanted. You've got a |
self-destructive thesis, leaving | me to pick up the pieces of the |
pictures of the people who I | left so long ago. |
POST-CHORUS 2:
        |        | 
I'd rather lose these wings, tighten these chains and stay here. |        |
BRIDGE PART I: (all instrumental)
BRIDGE PART II: (first 4 bars instrumental, with the following
                   lyrics in the 5th to 8th)
| You uprooted me and pulled the anchor from the dirt, |
while I'd rather stay right here at home, for what it's worth. |
Where my treasured memories aren't trapped in picture frames, |
I recognise familiar faces, but get lost in all the names. |
FINAL CHORUS:
| Carry this wait on your own, i'm giving | up, i'm going home, back to |
where i wasn't haunted by these | memories unwanted. You've got a |
self-destructive thesis, leaving | me to pick up the pieces of the |
pictures of the people who I | left so long ago. |

                                 END

Low Altitude Sickness is: Bass - Morgan
                          Guitar - Henry
                          Drums - Charles



************************************

| /   slide up
| \   slide down
| h   hammer-on
| p   pull-off
| ~   hold note
|( )  held note from previous bar
| +   harmonic
| x   Mute note
| b   Bend
| pb  Pre-bend
| br  Bend release
| pbr Pre-bend release
| brb Bend release bend

************************************
Tap to rate this tab
# A B C D E F G H I J K L M N O P Q R S T U V W X Y Z