Song name
# A B C D E F G H I J K L M N O P Q R S T U V W X Y Z

Misc Unsigned Bands - Feed The Rhino - Mr Red Eye tab

-------------------------------------------------------------------------------
			     Mr. Red Eye - FEED THE RHINO
-------------------------------------------------------------------------------
Tabbed by: tabTheRhino
Tuning: Drop D


my first guitar tab - so please ignore any strange notations
if you hear something wrong at the riff at the end of C, D, and J please post the correction!!

FTR have a bunch of shows next month - check out their live stuff!


PART A) - starting at 0:07

e|----------------------------------|
B|----------------------------------|
G|----------------------------------|
D|-5-5---5-5---5-5----5-5-5-7-7-6-6-|
A|-5-5---5-5---5-5----5-5-5-7-7-6-6-|
D|-5-5---5-5---5-5----5-5-5-7-7-6-6-|   x4

PART B)

e|------------------------------|
B|------------------------------|
G|------------------------------|
D|-10~10---8~8---6~6---1~-0-1\3-|
A|-10~10---8~8---6~6---1~-0-1\3-|
D|-10~10---8~8---6~6---1~-0-1\3-| x2

PART C)

e|------------------------------|
B|------------------------------|
G|------------------------------|
D|-5-5---5-5---5-5----5-7-7-6-6-|
A|-5-5---5-5---5-5----5-7-7-6-6-|
D|-5-5---5-5---5-5----5-7-7-6-6-|   x3

e|----------------------------------|
B|----------------------------------|
G|----------------------------------|
D|-5-5---5-5---5-5----2~0-1-4-3-1-0-|
A|-5-5---5-5---5-5----2~0-1-4-3-1-0-|
D|-5-5---5-5---5-5----2~0-1-4-3-1-0-|

PART D)

e|-----------------|-----------------|
B|-----------------|-----------------|
G|-----------------|-----------------|
D|-8-8-8-8-8-8-8-8-|-8-8-8-8-8-8-8-8-|
A|-8-8-8-8-8-8-8-8-|-8-8-8-8-8-8-8-8-|
D|-8-8-8-8-8-8-8-8-|-8-8-8-8-8-8-8-8-|

e|-----------------|-----------------|
B|-----------------|-----------------|
G|-----------------|-----------------|
D|-5-5-5-5-5-5-5-5-|-5-2~0-1-4-3-1-0-|
A|-5-5-5-5-5-5-5-5-|-5-2~0-1-4-3-1-0-|
D|-5-5-5-5-5-5-5-5-|-5-2~0-1-4-3-1-0-|

PART E)

e|-----------------|-----------------|
B|-----------------|-----------------|
G|-----------------|-----------------|
D|-8-8-8-8-8-8-8-8-|-8-8-8-8-8-8-8-8-|
A|-8-8-8-8-8-8-8-8-|-8-8-8-8-8-8-8-8-|
D|-8-8-8-8-8-8-8-8-|-8-8-8-8-8-8-8-8-|

PART F) breakdown

e|--------------------------|
B|--------------------------|
G|--------------------------|
D|-5-5-5---11b--5-5-5-2-2~--|
A|-5-5-5--------5-5-5-2-2~--|
D|-5-5-5--------5-5-5-2-2~--| x6

PART G)

e|---------------------|
B|---------------------|
G|---------------------|
D|--11-10--5-4--2\0-1~-|
A|--11-10--5-4--2\0-1~-|
D|--11-10--5-4--2\0-1~-|

PART H)

e|------------------------------|
B|------------------------------|
G|------------------------------|
D|-5-5---5-5---5-5----5-7-7-6-6-|
A|-5-5---5-5---5-5----5-7-7-6-6-|
D|-5-5---5-5---5-5----5-7-7-6-6-|   x4

PART I)

e|----------------------------------------------------------|
B|----------------------------------------------------------|
G|----------------------------------------------------------|
D|-11-10--5-4--2\0-1~---0~---5~---0~---1~---0~---\5~--0~----|
A|-11-10--5-4--2\0-1~---0~---5~---0~---1~---0~---\5~--0~----|
D|-11-10--5-4--2\0-1~---0~---5~---0~---1~---0~---\5~--0~----|

e|-----------------------------------------------------|
B|-----------------------------------------------------|
G|----------------------10b-----------------------10b--|
D|-5-5-5---11b--5-5-5--------5-5-5---11b--5-5-5---11b--|
A|-5-5-5--------5-5-5--------5-5-5--------5-5-5--------|
D|-5-5-5--------5-5-5--------5-5-5--------5-5-5--------|
     * *          * *          * *          * *            (palm mute)

PART J)

e|----------------------------------|
B|----------------------------------|
G|----------------------------------|
D|-5-5---5-5---5-5----5-5-5-7-7-6-6-|
A|-5-5---5-5---5-5----5-5-5-7-7-6-6-|
D|-5-5---5-5---5-5----5-5-5-7-7-6-6-|   x3

e|----------------------------------|
B|----------------------------------|
G|----------------------------------|
D|-5-5---5-5---5-5----2~0-1-4-3-1-0-|
A|-5-5---5-5---5-5----2~0-1-4-3-1-0-|
D|-5-5---5-5---5-5----2~0-1-4-3-1-0-|

PART K)

e|--------------------------|
B|--------------------------|
G|--------------------------|
D|-5-5-5---11b--5-5-5-2-2~--|
A|-5-5-5--------5-5-5-2-2~--|
D|-5-5-5--------5-5-5-2-2~--| x4

PART L)

e|------------------------------------------------------------------|
B|------------------------------------------------------------------|
G|------------------------------------------------------------------|
D|-5-5-5-5---x-x-x-x---5-5-5-5---x-x---5-5-5-5---x-x-x-x---5-5-5-5\-|
A|-5-5-5-5---x-x-x-x---5-5-5-5---x-x---5-5-5-5---x-x-x-x---5-5-5-5\-|
D|-5-5-5-5---x-x-x-x---5-5-5-5---x-x---5-5-5-5---x-x-x-x---5-5-5-5\-|

Tap to rate this tab
# A B C D E F G H I J K L M N O P Q R S T U V W X Y Z