Song name
# A B C D E F G H I J K L M N O P Q R S T U V W X Y Z

Misc Unsigned Bands - Alter Egon - Varfor Dor Ni tab

Varför dör ni - Alter egon (Peter London)

Studio: Standard Tuning/ E

Live: D tuning/ 1 step down/ DGCFAD


Intro:

E-------------------------------|
B-------------------------------|
G---9--9---12-12----------------|
D---9--9---12-12---10-10--7-7---|
A---7--7---10-10---10-10--7-7---|
E------------------8--8---5-5---|


Verse:

Jag hade ingen annan att vända mig till så jag vandrade själv i början av mitt liv
E-----------------------------------------------------------------------------------|
B-----------------------------------------------------------------------------------|
G--------------------------------7--7--7--5--5--5--5--5--5--5--5--5--5--5--9--9--9--|
D--2--2--2--2--2--2--2--2--2--2--5--5--5--5--5--5--5--5--5--5--5--5--5--5--7--7--7--|
A--2--2--2--2--2--2--2--2--2--2-----------3--3--3--3--3--3--3--3--3--3--3-----------|
E--0--0--0--0--0--0--0--0--0--0-----------------------------------------------------|

Det dröjde inte länge innan jag kom på att musik är mitt liv, det är bara så
E-----------------------------------------------------------------------------------|
B-----------------------------------------------------------------------------------|
G--------------------------------7--7--7--5--5--5--5--5--5--5--5--5--5--5--9--9--9--|
D--2--2--2--2--2--2--2--2--2--2--5--5--5--5--5--5--5--5--5--5--5--5--5--5--7--7--7--|
A--2--2--2--2--2--2--2--2--2--2-----------3--3--3--3--3--3--3--3--3--3--3-----------|
E--0--0--0--0--0--0--0--0--0--0-----------------------------------------------------|


Chorus:

Thore skogman man lever och man dör
E------------------------------|
B------------------------------|
G----9--9---12-12--------------|
D----9--9---12-12--10-10-7-7---|
A----7--7---10-10--10-10-7-7---|
E------------------8--8--5-5---|

David Hellman man skapar och förstör
E------------------------------|
B------------------------------|
G----9--9---12-12--------------|
D----9--9---12-12--10-10-7-7---|
A----7--7---10-10--10-10-7-7---|
E------------------8--8--5-5---|
Tap to rate this tab
# A B C D E F G H I J K L M N O P Q R S T U V W X Y Z