Song name
# A B C D E F G H I J K L M N O P Q R S T U V W X Y Z

Misc Unsigned Bands - Lead The Assault - Valheru tab

Band: Lead The Assault
Song: Valheru

Tuning: Drop A#


--------------------------------------------------------------------------------------


- Understanding the tab -


*Note that Guitar 1 is tabbed directly above Guitar 2 so it shows how the two
guitars are played together in that particular section.

Demonstation video at http://www.youtube.com/watch?v=ODEYA22Ouh0
In this video I play Guitar 1


*KEY*

. - Palm Mute
h - Hammer-on
p - Pull-off
/ - Slide up
= - Let ring
x - Deaden after play


[Intro]


|Guitar 1
|--------------------------12h13p12-----------------------------12h13p12------|
|-----------13----------13----------13-----------13----------13----------13---|
|--------10----------10-----------------------10----------10------------------|
|-0-8-10------0-8-10-------------------0-8-10------0-8-10---------------------|
|-----------------------------------------------------------------------------|
|-----------------------------------------------------------------------------|
| . . .  .    . .  . .  .              . . .  .    . . .  .  .
|
|Guitar 2
|--8-8---8-8---8-8--------------8-8---8-8---8-8-------------------------------|
|--8-8---8-8---8-8--------------8-8---8-8---8-8-------------------------------|
|--1010--1010--1010-------------1010--1010--1010------------------------------|
|--8-8-8-8-8-8-8-8-8-8-8-8-8888-8-8-8-8-8-8-8-8-8-8-8-8-8888------------------|
|--8-8-8-8-8-8-8-8-8-8-8-8-8888-8-8-8-8-8-8-8-8-8-8-8-8-8888------------------|
|--8-8-8-8-8-8-8-8-8-8-8-8-8888-8-8-8-8-8-8-8-8-8-8-8-8-8888------------------|
       .     .     . . . . ....     .     .     . . . . ....


|Guitar 1
|-----------------------------------------------------------------------------|
|---------10------------10h11-10-------------12------------10h11-10-----------|
|-------7----------7-10----------10--------7----------7-10----------10--------|
|-0-3-7------0-3-7-------------------0-3-7------0-3-7-------------------------|
|-----------------------------------------------------------------------------|
|-----------------------------------------------------------------------------|
| . . . .    . . . . .               . . . .    . . . . .
|
|Guitar 2
|--0-0---0-0---0-0--------------0-0---0-0---0-0-------------------------------|
|--6-6---6-6---6-6--------------6-6---6-6---6-6-------------------------------|
|--9-9---9-9---9-9--------------9-9---9-9---9-9-------------------------------|
|--0-0-0-0-0-0-0-0-0-0-0-0-0000-0-0-0-0-0-0-0-0-0-0-0-0-0000------------------|
|--0-0-0-0-0-0-0-0-0-0-0-0-0000-0-0-0-0-0-0-0-0-0-0-0-0-0000------------------|
|--0-0-0-0-0-0-0-0-0-0-0-0-0000-0-0-0-0-0-0-0-0-0-0-0-0-0000------------------|
       .     .     . . . . ....     .     .     . . . . ....

*Repeat this section 4 times
*Remember the three count rest in the middle of the 4th repeat


[Verse 1]

|Guitar 1
|------------------------------------------------------------------------------|
|------------------------------------------------------------------------------|
|-------------------------------8-----7----------------------------------------|
|---------------------------------5-8------------------------------------------|
|-7h8p7----------------10----------------7h8p7-----------5---10------12----8-7-|
|-------10-0-0--0h8h10----5-3-0----------------10-0--3-5--------8/10----10-----|
|            .                                                                   \
|                                                                                 x2
|Guitar 2                                                                        /
|------------------------------------------------------------------------------|
|------------------------------------------------------------------------------|
|------------------------------------------------------------------------------|
|-------------------------------0-0-0-0----------------------------------------|
|-7h8p7----------------10-------0-0-0-0--7h8p7-----------5---10------12---8-7--|
|-------10-0-0--0h8h10----5-3-0-0-0-0-0--------10-0--3-5--------8/10---10------|
             .                  . . . .

On third and fourth repeat there is a small harmonized sections as tabbed below

|Guitar 1
|------------------------------------------------------------------------------|
|------------------------------------------------------------------------------|
|------------------------------12------10--------------------------------------|
|---------------------------------8-12-----------------------------------------|
|-7h8p7----------------10----------------7h8p7-----------5---10------12----8-7-|
|-------10-0-0--0h8h10----5-3-0----------------10-0--3-5--------8/10----10-----|
|            .                                                                   \
|                                                                                 x2
|Guitar 2                                                                        /
|------------------------------------------------------------------------------|
|------------------------------------------------------------------------------|
|-------------------------------8-----7----------------------------------------|
|---------------------------------5-8------------------------------------------|
|-7h8p7----------------10----------------7h8p7-----------5---10------12---8-7--|
|-------10-0-0--0h8h10----5-3-0----------------10-0--3-5--------8/10---10------|
             .


[Pre-Chorus]

|Guitar 1
|-----------------------------------------------------------------------------|
|-----------------------------------------------------------------------------|
|-------------------------9h10p9---------------------------9h10p9-------------|
|-----------10---------10-------10----------10----------10--------10----------|
|---------8----------8--------------------8-----------8-----------------------|
|--0-8-10-----0-8-10---------------0-8-10------0-8-10-------------------------|
|  . . .  .    . . .  .  .              . . .  .    . . .  .  .
|
|Guitar 2
|-----------------------------------------------------------------------------|
|-----------------------------------------------------------------------------|
|-------------------------9h10p9---------------------------9h10p9-------------|
|-----------10---------10-------10----------10----------10--------10----------|
|---------8----------8--------------------8-----------8-----------------------|
|--0-8-10-----0-8-10---------------0-8-10------0-8-10-------------------------|
|  . . .  .    . . .  .  .              . . .  .    . . .  .  .


|Guitar 1
|-----------------------------------------------------------------------------|
|-----------------------------------------------------------------------------|
|-----------------------------------------------------------------------------|
|----------7-----------7h8p7------------7-----------7h8p7---------------------|
|--------5---------5-8-------8--------5---------5-8-------8-------------------|
|--0-3-7-----0-3-7--------------0-3-7-----0-3-7-------------------------------|
|  . . . .   . . . . .          . . . .   . . . . .
|
|Guitar 2
|-----------------------------------------------------------------------------|
|-----------------------------------------------------------------------------|
|-----------------------------------------------------------------------------|
|----------7-----------7h8p7------------7-----------7h8p7---------------------|
|--------5---------5-8-------8--------5---------5-8-------8-------------------|
|--0-3-7-----0-3-7--------------0-3-7-----0-3-7-------------------------------|
   . . . .   . . . . .          . . . .   . . . . .


|Guitar 1
|-----------------------------------------------------------------------------|
|-----------------------------------------------------------------------------|
|-------------------------9h10p9---------------------------9h10p9-------------|
|-----------10---------10-------10----------10----------10--------10----------|
|---------8----------8--------------------8-----------8-----------------------|
|--0-8-10-----0-8-10---------------0-8-10------0-8-10-------------------------|
|  . . .  .    . . .  .  .              . . .  .    . . .  .  .
|
|Guitar 2
|-----------------------------------------------------------------------------|
|-----------------------------------------------------------------------------|
|-------------------------9h10p9---------------------------9h10p9-------------|
|-----------10---------10-------10----------10----------10--------10----------|
|---------8----------8--------------------8-----------8-----------------------|
|--0-8-10-----0-8-10---------------0-8-10------0-8-10-------------------------|
|  . . .  .    . . .  .  .              . . .  .    . . .  .  .


|Guitar 1
|-----------------------------------------------------------------------------|
|-----------------------------------------------------------------------------|
|-----------------------------------------------------------------------------|
|----------7-----------7h8p7------------7-----------7h8p7---------------------|
|--------5---------5-8-------8--------5---------5-8-------8=------------------|
|--0-3-7-----0-3-7--------------0-3-7-----0-3-7-------------------------------|
|  . . . .   . . . . .          . . . .   . . . . .
|
|Guitar 2
|-----------------------------------------------------------------------------|
|-----------------------------------------------------------------------------|
|-----------------------------------------------------------------------------|
|----------7-----------7h8p7--------------------------------------------------|
|--------5---------5-8-------8------------------------------------------------|
|--0-3-7-----0-3-7------------------------------------------------------------|
   . . . .   . . . . .

[Chorus]


|Guitar 1
|--------------------------12h13p12-----------------------------12h13p12------|
|-----------13----------13----------13-----------13----------13----------13---|
|--------10----------10-----------------------10----------10------------------|
|-0-8-10------0-8-10-------------------0-8-10------0-8-10---------------------|
|-----------------------------------------------------------------------------|
|-----------------------------------------------------------------------------|
| . . .  .    . .  . .  .              . . .  .    . . .  .  .
|
|Guitar 2
|--8-8---8-8---8-8--------------8-8---8-8---8-8-------------------------------|
|--8-8---8-8---8-8--------------8-8---8-8---8-8-------------------------------|
|--1010--1010--1010-------------1010--1010--1010------------------------------|
|--8-8-8-8-8-8-8-8-8-8-8-8-8888-8-8-8-8-8-8-8-8-8-8-8-8-8888------------------|
|--8-8-8-8-8-8-8-8-8-8-8-8-8888-8-8-8-8-8-8-8-8-8-8-8-8-8888------------------|
|--8-8-8-8-8-8-8-8-8-8-8-8-8888-8-8-8-8-8-8-8-8-8-8-8-8-8888------------------|
       .     .     . . . . ....     .     .     . . . . ....


|Guitar 1
|-----------------------------------------------------------------------------|
|---------10------------10h11-10-------------12------------10h11-10-----------|
|-------7----------7-10----------10--------7----------7-10----------10--------|
|-0-3-7------0-3-7-------------------0-3-7------0-3-7-------------------------|
|-----------------------------------------------------------------------------|
|-----------------------------------------------------------------------------|
| . . . .    . . . . .               . . . .    . . . . .
|
|Guitar 2
|--0-0---0-0---0-0--------------0-0---0-0---0-0-------------------------------|
|--6-6---6-6---6-6--------------6-6---6-6---6-6-------------------------------|
|--9-9---9-9---9-9--------------9-9---9-9---9-9-------------------------------|
|--0-0-0-0-0-0-0-0-0-0-0-0-0000-0-0-0-0-0-0-0-0-0-0-0-0-0000------------------|
|--0-0-0-0-0-0-0-0-0-0-0-0-0000-0-0-0-0-0-0-0-0-0-0-0-0-0000------------------|
|--0-0-0-0-0-0-0-0-0-0-0-0-0000-0-0-0-0-0-0-0-0-0-0-0-0-0000------------------|
       .     .     . . . . ....     .     .     . . . . ....

*Repeat this section twice


[Verse 2]


|Guitar 1
|------------------------------------------------------------------------------|
|------------------------------------------------------------------------------|
|-------------------------------8-----7----------------------------------------|
|-3h7p3---------------------------5-8------------------------------------------|
|-------5-------------10----------------7h8p7------------5---10------12----8-7-|
|---------0-0--0h8h10-----5-3-0---------------10-0-0-3/5--------8/10----10-----|
|           .                                      .
|
|Guitar 2
|------------------------------------------------------------------------------|
|------------------------------------------------------------------------------|
|-------------------------------8-----7----------------------------------------|
|-3h7p3---------------------------5-8------------------------------------------|
|-------5-------------10----------------7h8p7------------5---10------12----8-7-|
|---------0-0--0h8h10-----5-3-0---------------10-0-0-3/5--------8/10----10-----|


|Guitar 1
|------------------------------------------------------------------------------|
|------------------------------------------------------------------------------|
|-------------------------------12----10---------------------------------------|
|---------------------------------8-12----------------------8------10----------|
|-7h8p7---------------10----------------7h8p7------------5---------------12-10-|
|------10-0-0--0h8h10-----5-3-0---------------10-0-0-3/5------8/10----10-------|
|           .                                      .
|
|Guitar 2
|------------------------------------------------------------------------------|
|------------------------------------------------------------------------------|
|-------------------------------8-----7----------------------------------------|
|---------------------------------5-8------------------------------------------|
|-7h8p7---------------10----------------7h8p7------------5---10------12----8-7-|
|------10-0-0--0h8h10-----5-3-0---------------10-0-0-3/5--------8/10----10-----|
            .                                      .


[Pre-Chorus 2]

|Guitar 1
|-----------------------------------------------------------------------------|
|-----------------------------------------------------------------------------|
|-------------------------9h10p9---------------------------12h14p12-----------|
|-----------10---------10-------10----------10----------10---------14---------|
|---------8----------8--------------------8-----------8-----------------------|
|--0-8-10-----0-8-10---------------0-8-10------0-8-10-------------------------|
|  . . .  .    . . .  .  .              . . .  .    . . .  .  .
|
|Guitar 2
|-----------------------------------------------------------------------------|
|-----------------------------------------------------------------------------|
|-------------------------9h10p9---------------------------9h10p9-------------|
|-----------10---------10-------10----------10----------10--------10----------|
|---------8----------8--------------------8-----------8-----------------------|
|--0-8-10-----0-8-10---------------0-8-10------0-8-10-------------------------|
|  . . .  .    . . .  .  .              . . .  .    . . .  .  .


|Guitar 1
|-----------------------------------------------------------------------------|
|-----------------------------------------------------------------------------|
|-----------------------------------------------------------------------------|
|----------7-----------7h8p7------------7-----------10h12p10------------------|
|--------5---------5-8-------8--------5---------5-8---------12----------------|
|--0-3-7-----0-3-7--------------0-3-7-----0-3-7-------------------------------|
|  . . . .   . . . . .          . . . .   . . . . .
|
|Guitar 2
|-----------------------------------------------------------------------------|
|-----------------------------------------------------------------------------|
|-----------------------------------------------------------------------------|
|----------7-----------7h8p7------------7-----------7h8p7---------------------|
|--------5---------5-8-------8--------5---------5-8-------8-------------------|
|--0-3-7-----0-3-7--------------0-3-7-----0-3-7-------------------------------|
   . . . .   . . . . .          . . . .   . . . . .


|Guitar 1
|-----------------------------------------------------------------------------|
|-----------------------------------------------------------------------------|
|-------------------------9h10p9---------------------------12h14p12-----------|
|-----------10---------10-------10----------10----------10---------14---------|
|---------8----------8--------------------8-----------8-----------------------|
|--0-8-10-----0-8-10---------------0-8-10------0-8-10-------------------------|
|  . . .  .    . . .  .  .              . . .  .    . . .  .  .
|
|Guitar 2
|-----------------------------------------------------------------------------|
|-----------------------------------------------------------------------------|
|-------------------------9h10p9---------------------------9h10p9-------------|
|-----------10---------10-------10----------10----------10--------10----------|
|---------8----------8--------------------8-----------8-----------------------|
|--0-8-10-----0-8-10---------------0-8-10------0-8-10-------------------------|
|  . . .  .    . . .  .  .              . . .  .    . . .  .  .


|Guitar 1
|-----------------------------------------------------------------------------|
|-----------------------------------------------------------------------------|
|---------------------------------------------------9h10p9--------------------|
|----------7-----------7h8p7------------7-----------------10=-----------------|
|--------5---------5-8-------8--------5---------5-8---------------------------|
|--0-3-7-----0-3-7--------------0-3-7-----0-3-7-------------------------------|
|  . . . .   . . . . .          . . . .   . . . . .
|
|Guitar 2
|-----------------------------------------------------------------------------|
|-----------------------------------------------------------------------------|
|-----------------------------------------------------------------------------|
|----------7-----------7h8p7--------------------------------------------------|
|--------5---------5-8-------8------------------------------------------------|
|--0-3-7-----0-3-7------------------------------------------------------------|
   . . . .   . . . . .


[Chorus]


|Guitar 1
|--------------------------12h13p12-----------------------------12h13p12------|
|-----------13----------13----------13-----------13----------13----------13---|
|--------10----------10-----------------------10----------10------------------|
|-0-8-10------0-8-10-------------------0-8-10------0-8-10---------------------|
|-----------------------------------------------------------------------------|
|-----------------------------------------------------------------------------|
| . . .  .    . .  . .  .              . . .  .    . . .  .  .
|
|Guitar 2
|--8-8---8-8---8-8--------------8-8---8-8---8-8-------------------------------|
|--8-8---8-8---8-8--------------8-8---8-8---8-8-------------------------------|
|--1010--1010--1010-------------1010--1010--1010------------------------------|
|--8-8-8-8-8-8-8-8-8-8-8-8-8888-8-8-8-8-8-8-8-8-8-8-8-8-8888------------------|
|--8-8-8-8-8-8-8-8-8-8-8-8-8888-8-8-8-8-8-8-8-8-8-8-8-8-8888------------------|
|--8-8-8-8-8-8-8-8-8-8-8-8-8888-8-8-8-8-8-8-8-8-8-8-8-8-8888------------------|
       .     .     . . . . ....     .     .     . . . . ....


|Guitar 1
|-----------------------------------------------------------------------------|
|---------10------------10h11-10-------------12------------10h11-10-----------|
|-------7----------7-10----------10--------7----------7-10----------10--------|
|-0-3-7------0-3-7-------------------0-3-7------0-3-7-------------------------|
|-----------------------------------------------------------------------------|
|-----------------------------------------------------------------------------|
| . . . .    . . . . .               . . . .    . . . . .
|
|Guitar 2
|--0-0---0-0---0-0--------------0-0---0-0---0-0-------------------------------|
|--6-6---6-6---6-6--------------6-6---6-6---6-6-------------------------------|
|--9-9---9-9---9-9--------------9-9---9-9---9-9-------------------------------|
|--0-0-0-0-0-0-0-0-0-0-0-0-0000-0-0-0-0-0-0-0-0-0-0-0-0-0000------------------|
|--0-0-0-0-0-0-0-0-0-0-0-0-0000-0-0-0-0-0-0-0-0-0-0-0-0-0000------------------|
|--0-0-0-0-0-0-0-0-0-0-0-0-0000-0-0-0-0-0-0-0-0-0-0-0-0-0000------------------|
       .     .     . . . . ....     .     .     . . . . ....

*Repeat this section twice


[Bridge]

|Guitar 1
|-----------------------------------------------------------------------------|
|-----------------------------------------------------------------------------|
|-5-5-5-5-5-5-5-5-5-5-5-5-5555------------------------------------------------|
|-3-3-3-3-3-3-3-3-3-3-3-3-3333-10-10-10-10-10-10-10-10-10-10------------------|
|-3-3-3-3-3-3-3-3-3-3-3-3-3333-10-10-10-10-10-10-10-10-10-10------------------|
|-3-3-3-3-3-3-3-3-3-3-3-3-3333-10-10-10-10-10-10-10-10-10-10-/17--19----------|
|     .     .     . . . . ....       .        .        .  .
|Guitar 2
|-----------------------------------------------------------------------------|
|-----------------------------------------------------------------------------|
|-5-5-5-5-5-5-5-5-5-5-5-5-5555------------------------------------------------|
|-3-3-3-3-3-3-3-3-3-3-3-3-3333-10-10-10-10-10-10-10-10-10-10------------------|
|-3-3-3-3-3-3-3-3-3-3-3-3-3333-10-10-10-10-10-10-10-10-10-10------------------|
|-3-3-3-3-3-3-3-3-3-3-3-3-3333-10-10-10-10-10-10-10-10-10-10-/14--15----------|
|     .     .     . . . . ....       .        .        .  .

|Guitar 1
|-----------------------------------------------------------------------------|
|-----------------------------------------------------------------------------|
|-----------------------------------------------------------------------------|
|-0-0-0-0-----0-0---0---------------0-0---0-----------------------------------|
|-0-0-0-0-0-0-0-0---0---7h9p7-------0-0-0-0-0------12----8-7------------------|
|-0-0-0-0-0-0-0-0-0-0-0------10/12--0-0-0-0-0-8/10----10----------------------|
          . .     .   .                 .   .
|
|Guitar 2
|-----------------------------------------------------------------------------|
|-----------------------------------------------------------------------------|
|-----------------------------------------------------------------------------|
|-0-0-0-0-----0-0---0---------------0-0---0-----------------------------------|
|-0-0-0-0-0-0-0-0---0---7h9p7-------0-0-0-0-0------12----8-7------------------|
|-0-0-0-0-0-0-0-0-0-0-0------10/12--0-0-0-0-0-8/10----10----------------------|
          . .     .   .                 .   .

|Guitar 1
|-----------------------------------------------------------------------------|
|-----------------------------------------------------------------------------|
|-5-5-5-5-5-5-5-5-5-5-5-5-5555------------------------------------------------|
|-3-3-3-3-3-3-3-3-3-3-3-3-3333-10-10-10-10-10-10-10-10-10-10------------------|
|-3-3-3-3-3-3-3-3-3-3-3-3-3333-10-10-10-10-10-10-10-10-10-10------------------|
|-3-3-3-3-3-3-3-3-3-3-3-3-3333-10-10-10-10-10-10-10-10-10-10-/17--19----------|
|     .     .     . . . . ....       .        .        .  .
|Guitar 2
|-----------------------------------------------------------------------------|
|-----------------------------------------------------------------------------|
|-5-5-5-5-5-5-5-5-5-5-5-5-5555------------------------------------------------|
|-3-3-3-3-3-3-3-3-3-3-3-3-3333-10-10-10-10-10-10-10-10-10-10------------------|
|-3-3-3-3-3-3-3-3-3-3-3-3-3333-10-10-10-10-10-10-10-10-10-10------------------|
|-3-3-3-3-3-3-3-3-3-3-3-3-3333-10-10-10-10-10-10-10-10-10-10-/14--15----------|
|     .     .     . . . . ....       .        .        .  .

|Guitar 1
|-----------------------------------------------------------------------------|
|-----------------------------------------------------------------------------|
|-----------------------------------------------------------------------------|
|-0-0-0-0-----0-0---0---------------0-0---0-----------------------------------|
|-0-0-0-0-0-0-0-0---0---7h9p7-------0-0-0-0-0------12----8-7------------------|
|-0-0-0-0-0-0-0-0-0-0-0------10/12--0-0-0-0-0-8/10----10----------------------|
          . .     .   .                 .   .
|
|Guitar 2
|-----------------------------------------------------------------------------|
|-----------------------------------------------------------------------------|
|-----------------------------------------------------------------------------|
|-0-0-0-0-----0-0---0---------------0-0---0-----------------------------------|
|-0-0-0-0-0-0-0-0---0---7h9p7-------0-0-0-0-0------12----8-7------------------|
|-0-0-0-0-0-0-0-0-0-0-0------10/12--0-0-0-0-0-8/10----10----------------------|
          . .     .   .                 .   .


[Breakdown Build-up]

|Guitar 1
|-0=-----------------0=-----------------0=-----------------0=--------0x------|
|-6=-----------------6=-----------------6=-----------------6=--------6x------|
|-9=-----------------9=-----------------9=-----------------9=--------9x------|
|-0=-----------------0=-----------------0=-----------------0=--------0x------|
|-0=-----------------0=-----------------0=-----------------0=--------0x------|
|-0=-----------------0=-----------------0=-----------------0=--------0x------|
|
|Guitar 2
|-0=-----------------0=-----------------0=-----------------0=--------0x------|
|-6=-----------------6=-----------------6=-----------------6=--------6x------|
|-9=-----------------9=-----------------9=-----------------9=--------9x------|
|-0=-----------------0=-----------------0=-----------------0=--------0x------|
|-0=-----------------0=-----------------0=-----------------0=--------0x------|
|-0=-----------------0=-----------------0=-----------------0=--------0x------|


[Breakdown]

|Guitar 1
|-0-0---0-0---0-0-------------0-0---0-0---0-0--------------------------------|
|-6-6---6-6---6-6-------------6-6---6-6---6-6--------------------------------|
|-9-9---9-9---9-9-------------9-9---9-9---9-9--------------------------------|
|-0-0-0-0-0-0-0-0-0-0-0-0-0-0-0-0-0-0-0-0-0-0-0-0-0-0-0000-------------------|
|-0-0-0-0-0-0-0-0-0-0-0-0-0-0-0-0-0-0-0-0-0-0-0-0-0-0-0000-------------------|
|-0-0-0-0-0-0-0-0-0-0-0-0-0-0-0-0-0-0-0-0-0-0-0-0-0-0-0000-------------------|
|
|Guitar 2
|-0-0---0-0---0-0-------------0-0---0-0---0-0--------------------------------|
|-6-6---6-6---6-6-------------6-6---6-6---6-6--------------------------------|
|-9-9---9-9---9-9-------------9-9---9-9---9-9--------------------------------|
|-0-0-0-0-0-0-0-0-0-0-0-0-0-0-0-0-0-0-0-0-0-0-0-0-0-0-0000-------------------|
|-0-0-0-0-0-0-0-0-0-0-0-0-0-0-0-0-0-0-0-0-0-0-0-0-0-0-0000-------------------|
|-0-0-0-0-0-0-0-0-0-0-0-0-0-0-0-0-0-0-0-0-0-0-0-0-0-0-0000-------------------|


Good luck!
Tap to rate this tab
# A B C D E F G H I J K L M N O P Q R S T U V W X Y Z