Song name
# A B C D E F G H I J K L M N O P Q R S T U V W X Y Z

Misc Unsigned Bands - Phthisis - Serpents Of tab

Tuning: C#

Gtr 1&2
e|----------------------------------------------------|
B|----------------------------------------------------|
G|----------------------------------------------3---2-|
D|--------------------------------------4-------------|
A|---------1----------------1-------1------1--1---1---|
E|-0--000--0--0-0--0-0-000--0--000--0--3---0--2---2---|

Gtr 1
e|-------------------------------------------------------------------------|
B|-----------------------------------------------------------------------12|
G|------------------------------------------------------------10-----------|
D|-------------------4---------4-4-----------13-13-13-13-13-9----11-10-8---|
A|-3-5-6-----------2---5-4-1-1-----/10-12-13-------------------------------|
E|-------4-4-4-4-4---------------------------------------------------------|

Gtr2
e|----------------------------------2--------2-------2---------2-----------|
B|----------------------------------3--------3-------3---------3-----------|
G|-4-----4--------4-------4---------4--------4-------4---------4-----------|
D|-5-----5--------5-------5---------4--------4-------4---------4-----------|
A|-3-----3--------3-------3---------2--------2-------2---------2-----------|
E|-4-----4--------4-------4------------------------------------------------|

Gtr1
e|---------------------------------|
B|---------------------------------|
G|---------------------------------|
D|-------------------4---------4-4-|
A|-3-5-6-----------2---5-4-1-1-----|
E|-------4-4-4-4-4-----------------|

Gtr2
e|---------------------------------|
B|---------------------------------|
G|-4-----4--------4-------4--------|
D|-5-----5--------5-------5--------|
A|-3-----3--------3-------3--------|
E|-4-----4--------4-------4--------|

Gtr 1
e|----------------------------------------------------|
B|----------------------------------------------------|
G|----------------------------------------------3---2-|
D|--------------------------------------4-------------|
A|---------1----------------1-------1------1--1---1---|
E|-0--000--0--0-0--0-0-000--0--000--0--3---0--2---2---|

Gtr 2
e|----------------------------------------------000555|
B|----------------------------------------------333777|
G|----9-6--11-----------------------------------222666|
D|---------------------8----14-11---5-----------------|
A|-0--7-4--9------------------------------------------|
E|-0-------------------6----12-9----3--0-7-0--4-------|

Gtr 1
e|-------------------------------------------------------------------------|
B|-----------------------------------------------------------------------12|
G|------------------------------------------------------------10-----------|
D|-------------------4---------4-4-----------13-13-13-13-13-9----11-10-8---|
A|-3-5-6-----------2---5-4-1-1-----/10-12-13-------------------------------|
E|-------4-4-4-4-4---------------------------------------------------------|

Gtr2
e|---------------------------------2--------2-------2---------2-----------|
B|---------------------------------3--------3-------3---------3-----------|
G|-4-----4--------4-------4--------4--------4-------4---------4-----------|
D|-5-----5--------5-------5--------4--------4-------4---------4-----------|
A|-3-----3--------3-------3--------2--------2-------2---------2-----------|
E|-4-----4--------4-------4-----------------------------------------------|

Gtr 1
e|-5------5-------5-------5--------10-------10------10--------10----------|
BI-6------6-------6-------6--------11-------11------11--------11----------|
G|-7------7-------7-------7--------12-------12------12--------12----------|
D|-7------7-------7-------7--------12-------12------12--------12----------|
A|-5------5-------5-------5--------10-------10------10--------10----------|
E|------------------------------------------------------------------------|

Gtr2
e|-10-----10------10------10-------14-------14------14--------14----------|
B|-8------8-------8-------8--------12-------12------12--------12----------|
G|------------------------------------------------------------------------|
D|------------------------------------------------------------------------|
A|------------------------------------------------------------------------|
E|------------------------------------------------------------------------|

Gtr 1
e|-5------5-------5-------5--------10-------10------10--------10----------|
BI-6------6-------6-------6--------11-------11------11--------11----------|
G|-7------7-------7-------7--------12-------12------12--------12----------|
D|-7------7-------7-------7--------12-------12------12--------12----------|
A|-5------5-------5-------5--------10-------10------10--------10----------|
E|------------------------------------------------------------------------|

Gtr 2
e|-12-----12------12------12--------17------17------17--------17----------|
B|-10-----10------10------10--------15------15------15--------15----------|
G|------------------------------------------------------------------------|
D|------------------------------------------------------------------------|
A|------------------------------------------------------------------------|
E|------------------------------------------------------------------------|

Gtr 1
e|-------0-0-0-0-0-12-15-14-18-15-14-------0-0-0-0-0-0-0--0--0--0--0-|
B|-----0-0-0-0-0-0-----------------------0-0-0-0-0-0-0-0--0--0--0--0-|
G|-----8-8-8-8-8-8-9--12-11-15-12-11-----8-8-8-8-8-8-8-8--8--8--8--8-|
D|-0-9-9-9-9-9-9-9-------------------0-9-9-9-9-9-9-9-9-9--9--9--9--9-|
A|-0-7-7-7-7-7-7-7-------------------0-7-9-9-9-9-9-9-9-9--9--9--9--9-|
E|-0-0-0-0-0-0-0-0-------------------0-0-0-0-0-0-0-0-0-0--0--0--0--0-|
-
Gtr 2
e|-------0-0-0-0-0-0--0--0--0--0--0--------0-0-0-0-0-----------------|
B|-----0-0-0-0-0-0-0--0--0--0--0--0------0-0-0-0-0-0-----------------|
G|-----8-8-8-8-8-8-8--8--8--8--8--8------8-8-8-8-8-8-8-11-10-14-11-10|
D|-0-9-9-9-9-9-9-9-9--9--9--9--9--9--0-9-9-9-9-9-9-9-----------------|
A|-0-7-9-9-9-9-9-9-9--9--9--9--9--9--0-7-7-7-7-7-7-7-7-10-9--13-10-9-
E|-0-0-0-0-0-0-0-0-0--0--0--0--0--0--0-0-0-0-0-0-0-0-----------------|

Gtr 1
e|-------0-0-0-0-0-12-15-14-18-15-21-------0-0-0-0-0-0-0--0--0--0--0-|
B|-----0-0-0-0-0-0-----------------------0-0-0-0-0-0-0-0--0--0--0--0-|
G|-----8-8-8-8-8-8-9--12-11-15-12-18-----8-8-8-8-8-8-8-8--8--8--8--8-|
D|-0-9-9-9-9-9-9-9-------------------0-9-9-9-9-9-9-9-9-9--9--9--9--9-|
A|-0-7-7-7-7-7-7-7-------------------0-7-9-9-9-9-9-9-9-9--9--9--9--9-|
E|-0-0-0-0-0-0-0-0-------------------0-0-0-0-0-0-0-0-0-0--0--0--0--0-|

Gtr 2
e|-------0-0-0-0-0-0--0--0--0--0--0--------0-0-0-0-0-----------------|
B|-----0-0-0-0-0-0-0--0--0--0--0--0------0-0-0-0-0-0-----------------|
G|-----8-8-8-8-8-8-8--8--8--8--8--8------8-8-8-8-8-8-8-11-10-14-13-17|
D|-0-9-9-9-9-9-9-9-9--9--9--9--9--9--0-9-9-9-9-9-9-9-----------------|
A|-0-7-9-9-9-9-9-9-9--9--9--9--9--9--0-7-7-7-7-7-7-7-7-10-9--13-12-16
E|-0-0-0-0-0-0-0-0-0--0--0--0--0--0--0-0-0-0-0-0-0-0-----------------|

Gtr 1
e|-1-1-1-1-1-1-1-1---------1-1-1-1-1-1-1-1---------1-1-1-1-1-1-1-1---------|
B|-3-3-3-3-3-3-3-3---------3-3-3-3-3-3-3-3---------3-3-3-3-3-3-3-3---------|
G|-2-2-2-2-2-2-2-2---9-8---2-2-2-2-2-2-2-2---9-8---2-2-2-2-2-2-2-2---9-8---|
D|-----------------------8-----------------------8-----------------------8-|
A|-----------------7-----------------------7-----------------------7-------|
E|-------------------------------------------------------------------------|

Gtr 2
e|-------------------------1-1-1-1-1-1-1-1---------------------------1211--|
B|-------------------------3-3-3-3-3-3-3-3-------------------------------11|
G|-------------------9-8---2-2-2-2-2-2-2-2---9-8-------------------9-------|
D|-----------------------8-----------------------8-------------------------|
A|-----------------7-----------------------7-----------------4-4-4---------
E|-------------------------------------------------0-1-3-4-6---------------|

Gtr 1
e|-1--1--1--1--1--1--1--1----------|
B|-3--3--3--3--3--3--3--3----------|
G|-2--2--2--2--2--2--2--2----9-8---|
D|-------------------------------8-|
A|-------------------------7-------|
E|---------------------------------|

Gtr2
e|---------------------------1514--|
B|-------------------------------14|
G|-------------------------12------|
D|---------------------------------|
A|---------------------------------|
E|-12-13-14-15-18-15-15-15---------|

Gtr 1
e|-------0-0-0-0-0-12-15-14-18-15-14-------0-0-0-0-0-0-0--0--0--0--0-|
B|-----0-0-0-0-0-0-----------------------0-0-0-0-0-0-0-0--0--0--0--0-|
G|-----8-8-8-8-8-8-9--12-11-15-12-11-----8-8-8-8-8-8-8-8--8--8--8--8-|
D|-0-9-9-9-9-9-9-9-------------------0-9-9-9-9-9-9-9-9-9--9--9--9--9-|
A|-0-7-7-7-7-7-7-7-------------------0-7-9-9-9-9-9-9-9-9--9--9--9--9-|
E|-0-0-0-0-0-0-0-0-------------------0-0-0-0-0-0-0-0-0-0--0--0--0--0-|
-
Gtr 2
e|-------0-0-0-0-0-0--0--0--0--0--0--------0-0-0-0-0-----------------|
B|-----0-0-0-0-0-0-0--0--0--0--0--0------0-0-0-0-0-0-----------------|
G|-----8-8-8-8-8-8-8--8--8--8--8--8------8-8-8-8-8-8-8-11-10-14-11-10|
D|-0-9-9-9-9-9-9-9-9--9--9--9--9--9--0-9-9-9-9-9-9-9-----------------|
A|-0-7-9-9-9-9-9-9-9--9--9--9--9--9--0-7-7-7-7-7-7-7-7-10-9--13-10-9-
E|-0-0-0-0-0-0-0-0-0--0--0--0--0--0--0-0-0-0-0-0-0-0-----------------|

Gtr 1
e|-------0-0-0-0-0-12-15-14-18-15-21-------0-0-0-0-0-0-0--0--0--0--0-|
B|-----0-0-0-0-0-0-----------------------0-0-0-0-0-0-0-0--0--0--0--0-|
G|-----8-8-8-8-8-8-9--12-11-15-12-18-----8-8-8-8-8-8-8-8--8--8--8--8-|
D|-0-9-9-9-9-9-9-9-------------------0-9-9-9-9-9-9-9-9-9--9--9--9--9-|
A|-0-7-7-7-7-7-7-7-------------------0-7-9-9-9-9-9-9-9-9--9--9--9--9-|
E|-0-0-0-0-0-0-0-0-------------------0-0-0-0-0-0-0-0-0-0--0--0--0--0-|

Gtr 2
e|-------0-0-0-0-0-0--0--0--0--0--0--------0-0-0-0-0-----------------|
B|-----0-0-0-0-0-0-0--0--0--0--0--0------0-0-0-0-0-0-----------------|
G|-----8-8-8-8-8-8-8--8--8--8--8--8------8-8-8-8-8-8-8-11-10-14-13-17|
D|-0-9-9-9-9-9-9-9-9--9--9--9--9--9--0-9-9-9-9-9-9-9-----------------|
A|-0-7-9-9-9-9-9-9-9--9--9--9--9--9--0-7-7-7-7-7-7-7-7-10-9--13-12-16
E|-0-0-0-0-0-0-0-0-0--0--0--0--0--0--0-0-0-0-0-0-0-0-----------------|

Gtr 1
e|--------------------------------------------------------------|
B|--------------------------------------------------------------|
G|------8----------------8---------------9-------------9--------|
D|----12--12----------12--12----------11--11--------11--11------|
A|--10------10--10---10-----10--10---9------9---9--9------9---9-|
E|-8----------8----8----------8----7----------7---7---------7---|

Gtr 1
e|----------------------------------------------------|
B|----------------------------------------------------|
G|----------------------------------------------3---2-|
D|--------------------------------------4-------------|
A|---------1----------------1-------1------1--1---1---|
E|-0--000--0--0-0--0-0-000--0--000--0--3---0--2---2---|

Gtr 2
e|----------------------------------------------000555|
B|----------------------------------------------333777|
G|----9-6--11-----------------------------------222666|
D|---------------------8----14-11---5-----------------|
A|-0--7-4--9------------------------------------------|
E|-0-------------------6----12-9----3--0-7-0--4-------|

Gtr 1
e|-------------------|
B|-------------------|
G|-------------------|
D|-------------------|
A|---------1---------|
E|-0--000--0--0-0----|

Gtr 2
e|-------------------|
B|-------------------|
G|---------10--------|
D|---------8---------|
A|-7-------7---------|
E|-0--000--0--0-0----|

Tap to rate this tab
 
# A B C D E F G H I J K L M N O P Q R S T U V W X Y Z