Song name
# A B C D E F G H I J K L M N O P Q R S T U V W X Y Z

Misc Unsigned Bands - My Only Vitrue - At All Costs tab

My Only Virtue - At All Costs
-------------------------------------------------------------------------------
Tabbed by: tyler.mov
PLEASE NOTE: This is the first tap I've ever written so it might to be too great. The 
chugs and stuff should be pretty easy to figure out so I'm going to get those as close to 
it as possible.

| h   hammer-on
| p   pull-off
| br   bend release
| ~ ring out
Tuning: Recording-Drop C  Live-Drop B

(0:00-0:20)
c#|----------------------------------------------| }
G#|----------------------------------------------| }
E |----------------------------------------------| }
b |----------------------------------------------| }x4
F#|--5--5--5-8-8-10-10-7--7--7-8-8-7-7h8p7-------| }
B |---00-00-0-0-0--0--0-00-00-0-0-0-0------------| }

(0:21-0:31)
Tremelo is same notes as first riff

(0:32-0:55)
c#|---------------------------------------------------------------| }
G#|---------------------------------------------------------------| }
E |---------------------------------------------------------------| }
b |---000-000--000-000--000-000-----------------------------------| }
F#|---000-000--000-000--000-000---5h8p5h8p5h8p-4h7p4h7p4h7--------| }
B |---000-000--000-000--000-000-----------------------------------| }
                                                                    }one whole part
c#|---------------------------------------------------------------| }
G#|---------------------------------------------------------------| }
E |---------------------------------------------------------------| }
b |---000-000--000-000--000-000-----------------------------------| }
F#|---000-000--000-000--000-000---8h12p8h12p8h12p-7h10p7h10p7h10p-| }
B |---000-000--000-000--000-000-----------------------------------| }

Last part of that riff

c#|---------------------------------------------------------------------------------------------|
G#|---------------------------------------------------------------------------------------------|
E |---------------------------------------------------------------------------------------------|
b |---000-000--000-000--000-000-----------------------------------------------------------------|
F#|---000-000--000-000--000-000---5h8p5h8p5h8p-4h7p4h7p4h7-8h12p8h12p8h12p-7h10p7h10p7h10p--5-4-|
B |---000-000--000-000--000-000-----------------------------------------------------------------|

(0:56-1:23)
c#|---------------------------------|---------------------------------------|
G#|---------------------------------|---------------------------------------|
E |---------------------------------|---------------------------------------|
b |--0~-------0~-------0~-------0~--|---{00000000----------}----------------|
F#|--0~-------0~-------0~-------0~--|---{00000000--5-3-----}-x4-------------|
B |--0~-------0~-------0~-------0~--|---{00000000-----5-3br}----------------|
                                         ********


(1:25-1:56)
c#|-------------------------------------------------------------|
G#|-------------------------------------------------------------|
E |--------121212-101010-9h10p9---------121212-101010-9h10p9----|[those are 12's and 10's]
b |-0~~~~~~~~~~~~~~~~~~~~~~~~~~--0~~~~~~~~~~~~~~~~~~~~~~~~~~----|
F#|-0~~~~~~~~~~~~~~~~~~~~~~~~~~--0~~~~~~~~~~~~~~~~~~~~~~~~~~----|
B |-0~~~~~~~~~~~~~~~~~~~~~~~~~~--0~~~~~~~~~~~~~~~~~~~~~~~~~~----|

c#|-------------------------------------------------------------|
G#|-------------------------------------------------------------|
E |--------10-9-9h10--------------------10-9-9h10---------------|
b |-8~~~~~~~~~~~~~~~~~~~~~~~~~~--0~~~~~~~~~~~~~~~~~~~~~~~~~~----|
F#|-8~~~~~~~~~~~~~~~~~~~~~~~~~~--0~~~~~~~~~~~~~~~~~~~~~~~~~~----|
B |-8~~~~~~~~~~~~~~~~~~~~~~~~~~--0~~~~~~~~~~~~~~~~~~~~~~~~~~----|



(1:58-2:30)
~Lead~
c#|-----------------------------------------------------------------------------------------------|
G#|-----------------------------------------------------------------------------------------------|
E |---10--9--12--10--9h10p9-----10--9--12--10--9h10p9-----10--9--9--9--9h10-----9--9--10--9--9h10-|
b |-00--00-00--00--00---------00--00-00--00--00---------88--88-88-88-88-------77-77-77--77-77-----|
F#|-----------------------------------------------------------------------------------------------|
B |-----------------------------------------------------------------------------------------------|


~Rhythm~
c#|------------------------------------------------------------------------------------------|
G#|------------------------------------------------------------------------------------------|
E |------------------------------------------------------------------------------------------|
b |------------------------------------------------------------------------------------------|
F#|---8--7--10--8--9h10p9------8--7--10--8--9h10p9------8--7--7--7--7h8----7--7--8--7--7h8---|
B |-00-00-00--00-00----------00-00-00--00-00----------88-88-88-88-88-----77-77-77-77-77------|


(2:31-3:00)
The breakdown ends the song.
Tap to rate this tab
 
# A B C D E F G H I J K L M N O P Q R S T U V W X Y Z