Song name
# A B C D E F G H I J K L M N O P Q R S T U V W X Y Z

Misc Unsigned Bands - Collin Mcloughlin - Stereo Hearts tab

Gym Class Heroes - Stereo hearts Cover by Collin Mcloughlin

Capo 1st fret: (relative to capo)


e|----------------2--------------0-----------0h2p0-----0---------------------|
B|-------------3----3---------3-----------3---------3--------------0h2-----3-|
G|----------4--------------0-----------2------------------------2------------|
D|----------------------------------0----------------------------------------|
A|-------2------------------------------------------------0------------------|
E|----------------------3----------------------------------------------------|


e|----------------0--------------0--------------0h2p0-----0-----------------|
B|-------------3-----3--------3-----3--------3---------3--------------0-h-2-|
G|----------0--------------0--------------2------------------------2--------|
D|-------------------------------------0------------------------------------|
A|-------2---------------------------------------------------0--------------|
E|----------------------3---------------------------------------------------|
Tap to rate this tab
# A B C D E F G H I J K L M N O P Q R S T U V W X Y Z