Song name
# A B C D E F G H I J K L M N O P Q R S T U V W X Y Z

Misc Unsigned Bands - Darren Korb - Build That Wall tab

Build That Wall - Bastion Soundtrack

Music by Darren Korb 
Vocals by Ashley Barrett

Available here: http://supergiantgames.bandcamp.com/


Tablature version: Fernando H.

|-------------------------------------------------------------------------------------------------|
|----------------------1---1---1---1-----------------------1---1---1---1---1---1-----------1---1--|
|----------------------0---0---0---0-----------------------1---1---1---1---0---0---4---4---0---0--|
|--------1-----------------------------------1-------------------------------------3---3----------|
|----1-3---3---3-1-3---3---3---3---3-----1-3---3---1---1-------------------3---3-----------3---3--|
|--3-----------------3-----------------3-------------3---3-1---1---1---1-----------3---3----------|


I dig my hole you build a wall...							x2
|-------------------------------------------------------------------------------------|
|-------1---1---1----1---1---1---1----1---1---1---1----1---1--------------1---1--1----|
|---0---0---0---0----0---0---0---0----1---1---1---1----0---0-----4---4----0---0--0----|
|----------------------------------------------------------------3---3----------------|
|-3---3---3---3----3---3---3---3---------------------3---3--------------3---3----3----|
|-----------------------------------1---1---1---1--------------3---3------------------|


So build that wall and build it strong...
|---------------------------------------------------------------------|
|---8----8----8----8--------------------------------------------------|
|---8----8----8----8----5---5---5---5----8---8---8----8-----5---5-----|
|-----------------------4---4---4---4----8---8---8----8-----4---4-----|
|-6----6----6--------------------------6---6---6----------------------|
|----------------6----5---5---5---5-----------------6-----5---5---5---|

Hope you like it o/
Tap to rate this tab
# A B C D E F G H I J K L M N O P Q R S T U V W X Y Z