Song name
# A B C D E F G H I J K L M N O P Q R S T U V W X Y Z

Misc Unsigned Bands - Uncommon Wealth - The Anthem tab

Drop C tuning  Gtr I (intro)
D|-----------------------------|-----------------------------|-----------------------------|
A|-----------------------------|-----------------------------|-----------------------------|
F|-----12-10----9h10p9-7-9-----|-----12-10----9h10p9-7-9-----|-----12-10----9h10p9-7-9-----|
C|-----------------------------|-3---------------------------|-5---------------------------|
G|-00--------00----------------|-3---------00----------------|-5---------00----------------|
C|-----------------------------|-3---------------------------|-5---------------------------|

D|----------------------------------|
A|----------------------------------|
F|-----12-10----12-10-9-------------|
C|-7-------------------12-10-9------|
G|-7--------------------------10/12-|
C|-7--------------------------------| (x2)

Gtr2
D|-----------------------------|-----------------------------|-----------------------------|
A|-----------------------------|-----------------------------|-----------------------------|
F|------9-7----5h7p5-4-5-------|------9-7----5h7p5-4-5-------|------9-7----5h7p5-4-5-------|
C|-----------------------------|-3---------------------------|-5---------------------------|
G|-00-------00-----------------|-3--------00-----------------|-5--------00-----------------|
C|-----------------------------|-3---------------------------|-5---------------------------|

D|----------------------------------|
A|----------------------------------|
F|-----12-10----12-10-9-------------|
C|-7-------------------12-10-9------|
G|-7--------------------------10/12-|
C|-7--------------------------------| (x2)
Tap to rate this tab
# A B C D E F G H I J K L M N O P Q R S T U V W X Y Z