Song name
# A B C D E F G H I J K L M N O P Q R S T U V W X Y Z

Misc Unsigned Bands - Glass Hammer - Centurion tab

----------------------------------------------------------------------------------
			           Centurion by Glass Hammer
----------------------------------------------------------------------------------
Tabbed by: Wolfbain Fox
Email: thomasgreene@yahoo.com

Glass Hammer Official Website: http://www.glasshammer.com/

Tuning: Standard
This solo is amazing and needed to be tabbed. Glass Hammer is an obscure 
band but none the less it measures up as one of my choice solos. Enjoy

	Solo 0:54
e|-------------------------------------------------------------------------------|
B|--8~~~~~~~~~--10b12r10-7~~-----5-7~~-8/10\8-7--8-5~~-8p7-----------------------|
G|-----------------------------7---------------------------7/4~~~~~~-------------|
D|---------------------------7---------------------------------------------------|
A|-------------------------------------------------------------------------------|
E|-------------------------------------------------------------------------------|

	1:07
e|--------------------------------12-12-12~/14~\12-10----14-14-14~~-15\14---/19--|
B|--12--b13r12b13r12--15-13-12-10---------------------13-----------------15------|
G|--------------------------------------------------------------------------16---|
D|-------------------------------------------------------------------------------|
A|-------------------------------------------------------------------------------|
E|-------------------------------------------------------------------------------|

	1:22
e|---------10-13-10--------------------------------------------------------------|
B|------11----------11----11~~/13-11~~-10-8-10~~10--12-13\12-10----10~~~---------|
G|---12----------------12----------------------------------------12--------------|
D|-------------------------------------------------------------------------------|
A|-------------------------------------------------------------------------------|
E|-------------------------------------------------------------------------------|

e|--10~------/14-14-15-15~~~-14~~~-----------------------------------------------|
B|-----12-12---------------------------------------------------------------------|
G|-------------------------------------------------------------------------------|
D|-------------------------------------------------------------------------------|
A|-------------------------------------------------------------------------------|
E|-------------------------------------------------------------------------------|

	1:36
e|-----12-14~~-15p14-12----12----------------------------------------------------|
B|--15------------------15------15--13-12-13~~-12-13-----------------------------|
G|---------------------------------------------------14~~\--/14~~-12-------------|
D|-------------------------------------------------------------------16-14\------|
A|-------------------------------------------------------------------------------|
E|-------------------------------------------------------------------------------|


************************************

| /   slide up
| \   slide down
| h   hammer-on
| p   pull-off
| ~   vibrato
| +   harmonic
| x   Mute note
| b   Bend
| pb  Pre-bend
| br  Bend release
| pbr Pre-bend release
| brb Bend release bend

************************************

Tap to rate this tab
# A B C D E F G H I J K L M N O P Q R S T U V W X Y Z