Song name
# A B C D E F G H I J K L M N O P Q R S T U V W X Y Z

Misc Unsigned Bands - Mantors - Hetro-chopper tab

#----------------------------------PLEASE NOTE---------------------------------#
#This file is the author's own work and represents their interpretation of the #
#song. You may only use this file for private study, scholarship, or research. #
#------------------------------------------------------------------------------#

Song: Hetro-Chopper
Band: The Mantors
Album: Lust Muscle
Guitarist: Psycho Scotty Slut Killer
Tabbed by: Judge_Scum
Tuning: 1/2 Step Down
E-male: Metal_Avenger666@ Yahoo.com(but i would prefer if you just sent any 
comment/corrections to my Ultimate Guitar page)


Comments - Awesome song. not sure if it's 100% but it sounds close enough to me
friendly corrections are more than welcome. this is my first REAL tab
(the outher being an enbarrasment) so please no bashing, i've seen some tabbers 
try hard and end up 
downright insulted cause the tab was not up to the readers standard
i thinks there is no reason for that. tabbing is a selfless act for the gain of others
there is no need to be an ass.

(Intro)
||------------------------------------------|(8X)
||------------------------------------------|
||------------------------------------------|
||------------------------------------------|
||--------5h7--------5h7-------5h7---5-4----|
||--0-0-0-------0-0-0-----0-0-0------3-2----|
     "Sick of all these sissys..."

(Verse)
||--------------------------------------------|(2X)
||--------------------------------------------|
||--------------------------------------------|
||--------------------------------------------|
||--4-4-4-4-4-4-4-4--8--4-4-4-4-4-4-4-4--10-9-|
||--2-2-2-2-2-2-2-2--6--2-2-2-2-2-2-2-2---8-7-|

(Chorus)   "Hetro-Chopper's commin' closer...."
||--------------------------------------------|(2X
||--------------------------------------------|
||--------------------------------------------|
||--------------------------------------------|
||---------------------------8----------------|
||-0-0-0-0-0-0-0-0-0-0-0-0-0-6----------------|
       *  *  *  * *  *  *  *  *  *  *  * *
                
                  Better face facts cause your all gonna die....
||--------------------------------------------|
||--------------------------------------------|
||--------------------------------------------|
||--------------------------------------------|
||---------------------------10-9-------------|
||-0-0-0-0-0-0-0-0-0-0-0-0-0--8-7-------------|
       *  *  *  *  *  *  *  *  * *  *  * *

(Interlude)   "Run and hide you little bitch..."
||--------------------------------------------|(2X)
||--------------------------------------------|
||--------------------------------------------|
||--------------------------------------------|
||--2--6--4--7----2--6------------------------|
||--0--4--2--5----0--4------------------------|

                         
                          "Hey! Hey! Hey!"
||--------------------------------------------|(2X)
||--------------------------------------------|
||--------------------------------------------|
||--------------------------------------------|
||--------5h-7--------5h-7--------5h7--5-4----|
||--0-0-0-------0-0-0-------0-0-0------3-2----|


(Verse)   "Metal in your face..."
||--------------------------------------------|(2X)
||--------------------------------------------|
||--------------------------------------------|
||--------------------------------------------|
||--4-4-4-4-4-4-4-4--8--4-4-4-4-4-4-4-4--10-9-|
||--2-2-2-2-2-2-2-2--6--2-2-2-2-2-2-2-2---8-7-|


(Chorus)    "Hetro-Chopper's commin' For Ya...."
||--------------------------------------------|(2X
||--------------------------------------------|
||--------------------------------------------|
||--------------------------------------------|
||---------------------------8----------------|
||-0-0-0-0-0-0-0-0-0-0-0-0-0-6----------------|
       *  *  *  * *  *  *  *  *  *  *  * *
                
 "Better face facts cause i'm gommin' straght from hell...."
||--------------------------------------------|
||--------------------------------------------|
||--------------------------------------------|
||--------------------------------------------|
||---------------------------10-9-------------|
||-0-0-0-0-0-0-0-0-0-0-0-0-0--8-7-------------|
       *  *  *  *  *  *  *  *  * *  *  * *

(Interlude)   "Cry and beg you little fag..."
||--------------------------------------------|(2X)
||--------------------------------------------|
||--------------------------------------------|
||--------------------------------------------|
||--2--6--4--7----2--6------------------------|
||--0--4--2--5----0--4------------------------|

                       "Run!...and hide!"
||--------------------------------------------|(4x)
||--------------------------------------------|
||--------------------------------------------|
||------------------9~~~~8~~~~~---------------|
||--------------------------------------------|
||--------------------------------------------|

    "Hey Meat Ball, why don't you get me a machine gun? Fire!..."
||--------------------------------------------|(9x)
||--------------------------------------------|
||--------------------------------------------|
||--------------------------------------------|
||--------5h-7--------5h-7--------5h7--5-4----|
||--0-0-0-------0-0-0-------0-0-0------3-2----|

(Interlude)   "Run and hide you little bitch..."
||--------------------------------------------|(2x)
||--------------------------------------------|
||--------------------------------------------|
||--------------------------------------------|
||--2--6--4--7----2--6------------------------|
||--0--4--2--5----0--4------------------------|

                "Cry and beg you little fag..."
||--------------------------------------------|(2x)
||--------------------------------------------|
||--------------------------------------------|
||--------------------------------------------|
||--2--6--4--7----2--6------------------------|
||--0--4--2--5----0--4------------------------|
                   
                        "Run!...and hide!"
||--------------------------------------------|(4x)
||--------------------------------------------|
||--------------------------------------------|
||------------------9~~~~8~~~~~---------------|
||--------------------------------------------|
||--------------------------------------------|



Lyrics

Sick of all these sissys
Startin' on the scene
[Faggots] Wairin' makeup in tattoo magazines
wanna be metal but your focus a'int so clear
Fallin' on the trends but now your death is near

Hetro-Chopper's commin' closer
Better face facts cause your all gonna die
Hetro-Chopper now is here
Gashin' and'a slashin' all the wanna be queers

Run and hide you little bitch
The sight of you just makes me twitch
It's a sickness that I keep down inside
Hetro-Chopper's here now run and hide

Hey!, Hey!, Hey!

Metal in your face
That's what we are shovin'
Heterosexuals banner-way's final weeks are commin'
Fires from hell now you'll feel my blade
Killin' Emo fags and there girls will be are slaves

Hetro-Chopper's commin' for ya
Better face facts cause I'm gommin' straight from hell
Hetro-Chopper now is here
Fuckin' all your women and drinkin' all your beer

Cry and beg you little fag
I'll be puttin' your emo head in a bodybag
It's a hetero mentor's conquest
Mass genocide Hetro-Chopper's here now run!...and hide!
Run!...and hide!

Run and hide you little bitch
The sight of you just makes me twitch
It's a sickness that I keep down inside
Hetro-Chopper's here now run and hide

Cry and beg you little fag
I'll be puttin' your emo head in a bodybag
It's a hetero mentor's conquest
Mass genocide Hetro-Chopper's here now run!...and hide!
Run!...hide!
Tap to rate this tab
# A B C D E F G H I J K L M N O P Q R S T U V W X Y Z