Song name
# A B C D E F G H I J K L M N O P Q R S T U V W X Y Z

Misc Unsigned Bands - Darren Korb - Mother Im Here tab

Mother, I'm Here - Bastion Soundtrack

Music by Darren Korb 
Vocals by Darren Korb

Available here: http://supergiantgames.bandcamp.com/



Tablature version: Fernando H.

Intro:

e|-----------------------------------------------------|
B|-----------------------------------------------1-----|
G|--5--------5---5--------5---0--------0-----------0---|
D|--5--------5---6--------6---1--------1---4-----------|
A|--3------3-----3------3-----1------1-----0-----------|
E|--3----3-------4----4-------3----3-------2----2----2-|




       I set my sail  Fly, the wind..            Back to my home
e|--------------------------------------------------------------------------|
B|------4---4-3--------------------------------------------------------1----|
G|--5----------5-----5-----------3-------------0---0-----0-----0--------0---|
D|--5----------------6---6---5-6---6-6-5-------1-------3-------4------------|
A|--3----------------3-------------------------1---------------0------------|
E|--3----------------4-------------------------3---------------2----2-----2-|

        Lie on my back Clouds are making...                home sweet home 
e|--------------------------------------------------------------------------|
B|------4---4-3-------------------------------------------------------------|
G|--5----------5-----5-----------3-------------0---0-----0----------0---2---|
D|--5----------------6---6---5-6---6-6-5-------1-------3-------4--------4---|
A|--3----------------3-------------------------1---------------0--------0---|
E|--3----------------4-------------------------3---------------2--------2---|


        I see your star, you left it burning for me.  Mother, I'm here
e|------------------------------------------------------------------------|
B|------------------------------------------------------------------------|
G|-0-----3-2----0-----------------------0--2-----0----3-2---0--------0--2-|
D|-1---------------4--4--4--2---0---4---------4--1------------4---4-------|
A|-1------------------0--------------------------1----------------0-------|
E|-3------------------2--------------------------3----------------2-------|

Let the chords ring out while playing the other notes.

If you're going to sing along, play only the chords.

Hope you like it o/
Tap to rate this tab
# A B C D E F G H I J K L M N O P Q R S T U V W X Y Z