Song name
# A B C D E F G H I J K L M N O P Q R S T U V W X Y Z

Misc Unsigned Bands - Hitts - Give Me A Break tab

Verse: "Whatching your house fade away last night as I..."
G-9-9-9-9-9-9-9-9-6-6-6-6-4-4-4-4-2-2-2-2-2-2-2-2-|
D-0-0-0-0-7-7-7-7-4-4-4-4-2-2-2-2-0-0-0-0-0-0-0-0-|
A-------------------------------------------------|
E-------------------------------------------------|

Chorus: "Give Me A Break, Give Me A Break, ect."
G-----------------------------------------------------------------|
D-----------------------------------------------------------------|
A-0-0-0-0-0-0-0-0-2-2-2-2-2-2-2-2-5-5-5-5-5-5-5-5-5-5-5-5-5-5-5-5-|
E-----------------------------------------------------------------|

Break:
G----------------------------------------------------------------------------|
D-----7-----7----7-----2-----2-----2---2-----7-----7----7-----11-----11---11-|
A-5-5---5-5---5----0-0---0-0---0-0---0---5-5---5-5---5----9-9----9-9----9----|
E----------------------------------------------------------------------------|
Tap to rate this tab
# A B C D E F G H I J K L M N O P Q R S T U V W X Y Z