Song name
# A B C D E F G H I J K L M N O P Q R S T U V W X Y Z

Misc Unsigned Bands - Cody Stilfield - Na tab

A |1~---2~---1~-----------------------------------------|
E |2~---3~----2~----------------------------------------|
A |-----------------------------------------------------|
D |-----------------------------------------------------|
G#|-----------------------------------------------------|
B |-----------------------------------------------------|


                     0:00-0:04


A |0000--0----0--|
E |(1)-----------|
A |--------------|                  x4
D |--------------|
G#|--------------|
B |--------------|



A |0000--0~---0~~--|
E |----------------|
A |----------------|
D |----------------|                 x2
G#|----------------|
B |----------------|


A |0--------0-------------0----0-------------------------|
E |------------------------------------------------------|
A |------------------------------------------------------|
D |------------------------------------------------------|
G#|------------------------------------------------------|
B |------------------------------------------------------|

                    0:18- 0:20

A |---0--000-------000-----------000-------|
E |9-----------6-----------10-----------4--|
A |----------------------------------------|
D |----------------------------------------|                    x4
G#|----------------------------------------|
B |----------------------------------------|
Tap to rate this tab
 
# A B C D E F G H I J K L M N O P Q R S T U V W X Y Z