Song name
# A B C D E F G H I J K L M N O P Q R S T U V W X Y Z

Misc Unsigned Bands - The Deadbeats - Lets Shoot Maria tab

punk 1978

    "LETS SHOOT MARIA" by the Deadbeats

|----------|----------|------------|
|----------|----------|------------|
|----------|----------|------------|
|-------10-|-------10-|-------10-9-|
|-7-7-7-8--|-7-7-7-8--|-7-7-7-8--7-|
|-0-0-0-0--|-0-0-0-0--|-0-0-0-0--0-|


|-----------------|-----------------|
|-----------------|-----------------|
|-9-9-----7-7-----|-9-9-----7-7-----|
|-9-9-9-9-7-7-7-7-|-9-9-9-9-7-7-7-7-|
|-7-7-9-9-5-5-7-7-|-7-7-9-9-5-5-7-7-|
|-----7-7-----5-5-|-----7-7-----5-5-|
need a sacrifice! goin out n town now!
|-----------------|-----------------|
|-----------------|-----------------|
|-9-9-----7-7-----|-9-9-----7-7-----|
|-9-9-9-9-7-7-7-7-|-9-9-9-9-7-7-7-7-|
|-7-7-9-9-5-5-7-7-|-7-7-9-9-5-5-7-7-|
|-----7-7-----5-5-|-----7-7-----5-5-|
packin me a piece now!
|-----------------|-----------------|
|-----------------|-----------------|
|-9-9-8-8-7-7-6-6-|-9-9-8-8-7-7-6-6-|
|-9-9-8-8-7-7-6-6-|-9-9-8-8-7-7-6-6-|
|-7-7-6-6-5-5-4-4-|-7-7-6-6-5-5-4-4-|
|-----------------|-----------------|
gonna finish up                   gonna finish up
what gary gilomore started    what gary gilmore started
|---------|---------|---------|---------|
|---------|---------|---------|---------|
|---------|---------|---------|---------|
|---------|---------|---------|---------|
|-2-2-2-2-|-2-2-2-2-|-6-6-6-6-|-6-6-6-6-|
|---------|---------|---------|---------|
gonna finish up                   gonna finish up
what gary gilomore started    what gary gilmore started
|---------|---------|---------|---------|-----------------|
|---------|---------|---------|---------|-----------------|
|---------|---------|-2-2-2-2-|-2-2-2-2-|-5-5-5-5-5-5-5-5-|
|-4-4-4-4-|-4-4-4-4-|---------|---------|-5-5-5-5-5-5-5-5-|
|---------|---------|---------|---------|-3-3-3-3-3-3-3-3-|
|---------|---------|---------|---------|-----------------|
mareeeya i just shot the girl named mareeeya
|----------|----------|----------|------------|
|----------|----------|----------|------------|
|----------|----------|----------|------------|
|-------10-|-------10-|-------10-|-------10-9-|
|-7-7-7-8--|-7-7-7-8--|-7-7-7-8--|-7-7-7-8--7-|
|-0-0-0-0--|-0-0-0-0--|-0-0-0-0--|-0-0-0-0--0-|

|-----------------|-----------------|
|-----------------|-----------------|
|-9-9-----7-7-----|-9-9-----7-7-----|
|-9-9-9-9-7-7-7-7-|-9-9-9-9-7-7-7-7-|
|-7-7-9-9-5-5-7-7-|-7-7-9-9-5-5-7-7-|
|-----7-7-----5-5-|-----7-7-----5-5-|

and thats all just repeat all this one more time and youre done!
punk rock!
-bert
Tap to rate this tab
 
# A B C D E F G H I J K L M N O P Q R S T U V W X Y Z