Song name
# A B C D E F G H I J K L M N O P Q R S T U V W X Y Z

Misc Unsigned Bands - Goodbye Blue Skies - The Great Debate tab

C  :----------------|----------------|----------------|----------------|
B  :----------------|----------------|----------------|----------------|
F# :----------------|----------------|----------------|----------------|
C# :3-3-3-3-3-3-3-3-|6-6-6-6-6-6-6-6-|7-7-7-7-7-7-7-7-|0-0-0-0-0-0-0-0-|
G# :3-3-3-3-3-3-3-3-|6-6-6-6-6-6-6-6-|7-7-7-7-7-7-7-7-|0-0-0-0-0-0-0-0-|
C# :3-3-3-3-3-3-3-3-|6-6-6-6-6-6-6-6-|7-7-7-7-7-7-7-7-|0-0-0-0-0-0-0-0-|

C  :----------------|----------------|----------------|----------------|
B  :----------------|----------------|----------------|----------------|
F# :----------------|----------------|----------------|----------------|
C# :3-3-3-3-3-3-3-3-|6-6-6-6-6-6-6-6-|7-7-7-7-7-7-7-7-|7-7-7-7-7-7-7---|
G# :3-3-3-3-3-3-3-3-|6-6-6-6-6-6-6-6-|7-7-7-7-7-7-7-7-|7-7-7-7-7-7-7---|
C# :3-3-3-3-3-3-3-3-|6-6-6-6-6-6-6-6-|7-7-7-7-7-7-7-7-|7-7-7-7-7-7-7---|

C  :------------------|------------------|------------------|
B  :------------------|------------------|------------------|
F# :------------------|------------------|------------------|
C# :------------------|------------------|------------------|
G# :3-3-8-8-8-7-7-7-7-|3-3-8-8-8-7-7-7-7-|3-3-8-8-8-7-7-7-7-|
c# :3-3-7-7-7-7-7-7-7-|3-3-7-7-7-7-7-7-7-|3-3-7-7-7-7-7-7-7-|

C  :------------------|------------------|------------------|
B  :------------------|------------------|------------------|
F# :------------------|------------------|------------------|
C# :------------------|------------------|------------------|
G# :3-3-8-8-8-7-7-7-7-|3-3-8-8-8-7-7-7-7-|3-3-8-8-8-7-7-7-7-|
C# :3-3-7-7-7-7-7-7-7-|3-3-7-7-7-7-7-7-7-|3-3-7-7-7-7-7-7-7-|

C  :------------------|------------------|----------------|----------------|
B  :------------------|------------------|----------------|----------------|
F# :------------------|------------------|----------------|----------------|
C# :------------------|------------------|7-7-5-------7-7-|5---------------|
G# :3-3-8-8-8-7-7-7-7-|3-3-8-8-8-7-7-7-7-|7-7---5-7-7-7-7-|--5-7-7-2-2-3-3-|
C# :3-3-7-7-7-7-7-7-7-|3-3-7-7-7-7-7-7-7-|7-7---------7-7-|----------------|

C  :----------------|----------------|----------------|----------------|
B  :----------------|----------------|----------------|----------------|
F# :----------------|----------------|----------------|----------------|
C# :3-3-5-------0-0-|5---------------|7-7-5-------7-7-|5---------------|
G# :3-3---5-7-7-0-0-|--5-7-7-3-3-2-2-|7-7---5-7-7-7-7-|--5-7-7-2-2-3-3-|
C# :3-3---------0-0-|----------------|7-7---------7-7-|----------------|

C  :----------------|----------------|----------------|----------------|
B  :----------------|----------------|----------------|----------------|
F# :----------------|----------------|----------------|----------------|
C# :3-3-5-------0-0-|5---------------|7-*-7-*-7-*-7-*-|7-*-------------|
G# :3-3---5-7-7-0-0-|--5-7-7-3-3-2-2-|7-*-7-*-7-*-7-*-|7-*-------------|
C# :3-3---------0-0-|----------------|7-*-7-*-7-*-7-*-|7-*-------------|

C  :--------------------|--------------------|--------------------|
B  :--------------------|--------------------|--------------------|
F# :--------------------|--------------------|--------------------|
C# :7-*---7-7-7-7-7-7-*-|--7-7-*-7-7-7-7-7-*-|7-*---7-7-7-7-7-7-*-|
G# :7-*---7-7-7-7-7-7-*-|--7-7-*-7-7-7-7-7-*-|7-*---7-7-7-7-7-7-*-|
C# :7-*---7-7-7-7-7-7-*-|--7-7-*-7-7-7-7-7-*-|7-*---7-7-7-7-7-7-*-|

C  :--------------------|----------------|----------------|----------------|
B  :--------------------|----------------|----------------|----------------|
F# :--------------------|----------------|----------------|----------------|
C# :--7-7-*-7-7-7-7-7-*-|0-----0-0---0---|--0-0---0---0---|0-----0-0---0---|
G# :--7-7-*-7-7-7-7-7-*-|0-----0-0---0---|--0-0---0---0---|0-----0-0---0---|
C# :--7-7-*-7-7-7-7-7-*-|1-----1-1---1---|--1-1---1---1---|1-----1-1---1---|

C  :----------------|-------------------------|--------------------|
B  :----------------|-------------------------|--------------------|
F# :----------------|----------------------9-9|9-*-----------------|
C# :--0-0---0---0---|7-7-7-7-7-*-7-7-7-7-7----|------7-7-7-7-7-7-*-|
G# :--0-0---0---0---|7-7-7-7-7-*-7-7-7-7-7-7-7|7-*---7-7-7-7-7-7-*-|
C# :--1-1---1---1---|7-7-7-7-7-*-7-7-7-7-7----|------7-7-7-7-7-7-*-|

C  :-------------------------|--------------------|
B  :-------------------------|--------------------|
F# :----------------------9-9|9-*-----------------|
C# :7-7-7-7-7-*-7-7-7-7-7----|------7-7-7-7-7-7-*-|
G# :7-7-7-7-7-*-7-7-7-7-7-7-7|7-*---7-7-7-7-7-7-*-|
C# :7-7-7-7-7-*-7-7-7-7-7----|------7-7-7-7-7-7-*-|

C  :--------11-----------11----|-----------------------|
B  :--------11-----------11----|-----------------------|
F# :------------------------9-9|9-*--------------------|
C# :7-7-7-7------7-7-7-7-------|------7-7-7-7-7--------|
G# :7-7-7-7------7-7-7-7----7-7|7-*---7-7-7-7-7-7-0-7-0|
c# :7-7-7-7------7-7-7-7-------|------7-7-7-7-7--------|

C  :--------11-----------11----|-----------------------|----------------|
B  :--------11-----------11----|-----------------------|----------------|
F# :------------------------9-9|9-*--------------------|----------------|
C# :7-7-7-7------7-7-7-7-------|------7-7-7-7-7--------|5---------------|
G# :7-7-7-7------7-7-7-7----7-7|7-*---7-7-7-7-7-7-0-7-0|5---------------|
C# :7-7-7-7------7-7-7-7-------|------7-7-7-7-7--------|5---------------|

C  :----------------|------------------------|-----------------------|
B  :----------------|------------------------|-----------------------|
F# :----------------|------16-17-16----------|16-17-16----17-16------|
C# :2-2-2-2-2-2-*---|14-17----------17-14-17-|---------17-------17---|
G# :2-2-2-2-2-2-*---|------------------------|-----------------------|
C# :2-2-2-2-2-2-*---|------------------------|-----------------------|

C  :------------------------|-----------------------|
B  :------------------------|-----------------------|
F# :------16-17-16----------|16-17-16----17-16------|
C# :14-17----------17-14-17-|---------17-------17---|
G# :------------------------|-----------------------|
C# :------------------------|-----------------------|

C  :------------------------|-----------------------|
B  :------------------------|-----------------------|
F# :------16-17-16----------|16-17-16----17-16------|
C# :14-17----------17-14-17-|---------17-------17---|
G# :------------------------|-----------------------|
C# :------------------------|-----------------------|

C  :------------------------|-----------------------|
B  :------------------------|-----------------------|
F# :------16-17-16----------|16-17-16----17-16------|
C# :14-17----------17-14-17-|---------17-------17---|
G# :------------------------|-----------------------|
C# :------------------------|-----------------------|

C  :------------------------|-----------------------|
B  :------------------------|-----------------------|
F# :------16-17-16----------|16-17-16----17-16------|
C# :14-17----------17-14-17-|---------17-------17---|
G# :------------------------|-----------------------|
C# :------------------------|-----------------------|

C  :------------------------|-----------------------|
B  :------------------------|-----------------------|
F# :------16-17-16----------|16-17-16----17-16------|
C# :14-17----------17-14-17-|---------17-------17---|
G# :------------------------|-----------------------|
C# :------------------------|-----------------------|

C  :------------------------|-----------------------|
B  :------------------------|-----------------------|
F# :------16-17-16----------|16-17-16----17-16------|
C# :14-17----------17-14-17-|---------17-------17---|
G# :------------------------|-----------------------|
C# :------------------------|-----------------------|

C  :------------------------|-----------------------|---------------------|
B  :------------------------|-----------------------|---------------------|
F# :------16-17-16----------|16-17-16----17-16------|---------------------|
C# :14-17----------17-14-17-|---------17-------17---|7-7-7-5-0-5-0-7-7----|
G# :------------------------|-----------------------|7-7-7---------7-7-5-0|
C# :------------------------|-----------------------|7-7-7---------7-7----|

C  :----------------------|---------------------|----------------------|
B  :----------------------|---------------------|----------------------|
F# :--------------9-9-9-*-|---------------------|--------------9-9-9-*-|
C# :----7-7---------------|7-7-7-5-0-5-0-7-7----|----7-7---------------|
G# :5-0-7-7-7-7-7-8-8-8-*-|7-7-7---------7-7-5-0|5-0-7-7-7-7-7-8-8-8-*-|
C# :----7-7---------------|7-7-7---------7-7----|----7-7---------------|

C  :--------------------|----------------------|----------------------|
B  :--------------------|----------------------|----------------------|
F# :9-*-9-*-9-9-9-9-9-*-|----------------------|----------------------|
C# :--------------------|3-3-3-3-3-3-*3-3-*----|3-3-*----3-3-3-3-3-3-*|
G# :8-*-8-*-8-8-8-8-8-*-|3-3-3-3-3-3-*3-3-*----|3-3-*----3-3-3-3-3-3-*|
C# :--------------------|3-3-3-3-3-3-*3-3-*----|3-3-*----3-3-3-3-3-3-*|

C  :----------------------|----------------|----------------------|
B  :----------------------|----------------|----------------------|
F# :----------------------|----------------|----------------------|
C# :3-3-3-3-3-3-*3-3-*----|7--7--7-5--5--5-|3-3-3-3-3-3-*3-3-*----|
G# :3-3-3-3-3-3-*3-3-*----|7--7--7-5--5--5-|3-3-3-3-3-3-*3-3-*----|
C# :3-3-3-3-3-3-*3-3-*----|7--7--7-5--5--5-|3-3-3-3-3-3-*3-3-*----|

C  :----------------------|----------------------|----------------|
B  :----------------------|----------------------|----------------|
F# :----------------------|----------------------|----------------|
C# :3-3-*----3-3-3-3-3-3-*|3-3-3-3-3-3-*3-3-*----|7--7--7-5--5--5-|
G# :3-3-*----3-3-3-3-3-3-*|3-3-3-3-3-3-*3-3-*----|7--7--7-5--5--5-|
C# :3-3-*----3-3-3-3-3-3-*|3-3-3-3-3-3-*3-3-*----|7--7--7-5--5--5-|

C  :--------------------------|------------------------------|
B  :------7-0-2-0-4-0-2-0-----|7-0-2-0-4-0-2-0---------------|
F# :--------------------------|----------------4-0-5-0-4-0---|
C# :3-3-3---------------------|----------------------------3-|
G# :3-3-3-----------------2-2-|----------------------------3-|
C# :3-3-3-----------------0-0-|----------------------------3-|

C  :-----------------------------|----------------|
B  :------7-0-2-0-4-0-2-0--------|----------------|
F# :----------------------4-0-5-0|----------------|
C# :3-3-3------------------------|7--7--7-5--5--5-|
G# :3-3-3------------------------|7--7--7-5--5--5-|
C# :3-3-3------------------------|7--7--7-5--5--5-|

C  :--------------------------|------------------------------|
B  :------7-0-2-0-4-0-2-0-----|7-0-2-0-4-0-2-0---------------|
F# :--------------------------|----------------4-0-5-0-4-0---|
C# :3-3-3---------------------|----------------------------3-|
G# :3-3-3-----------------2-2-|----------------------------3-|
C# :3-3-3-----------------0-0-|----------------------------3-|

C  :-----------------------------|----------------|--------------------|
B  :------7-0-2-0-4-0-2-0--------|----------------|--------------------|
F# :----------------------4-0-5-0|----------------|9-9-------12-12-9-9-|
C# :3-3-3------------------------|7--7--7---------|----10-10-----------|
G# :3-3-3------------------------|7--7--7-7--7-*--|--------------------|
C# :3-3-3------------------------|7--7--7-6--6-*--|--------------------|

C  :--------------------|--------------------|---------------------|
B  :--------------------|--------------------|---------------------|
F# :9-9-------12-12-9-9-|9-9-------12-12-9-9-|9-9-------12-10-9-10-|
C# :----10-10-----------|----10-10-----------|----10-10------------|
G# :--------------------|--------------------|---------------------|
C# :--------------------|--------------------|---------------------|

C  :--------------------|--------------------|--------------------|
B  :--------------------|--------------------|--------------------|
F# :9-9-------12-12-9-9-|9-9-------12-12-9-9-|9-9-------12-12-9-9-|
C# :----10-10-----------|----10-10-----------|----10-10-----------|
G# :--------------------|--------------------|--------------------|
C# :--------------------|--------------------|--------------------|

C  :---------------------|--------------------|------------------|
B  :---------------------|--------------------|------------------|
F# :9-9-------12-10-9-10-|--------------------|------------------|
C# :----10-10------------|7-7-7-7-7-*---------|------------------|
G# :---------------------|7-7-7-7-7-*---------|------------------|
C# :---------------------|7-7-7-7-7-*---------|--------3-3--3-3--|

C  :-------------------------|------------------|--------------------|
B  :-------------------------|------------------|--------------------|
F# :-------------------------|------------------|--------------------|
C# :10-10-10-10-10-*---------|------------------|7-7-7-7-7-*---------|
G# :10-10-10-10-10-*---------|------------------|7-7-7-7-7-*---------|
C# :10-10-10-10-10-*---------|--------0-0--0-0--|7-7-7-7-7-*---------|

C  :------------------|-------------------------|------------------|
B  :------------------|-------------------------|------------------|
F# :------------------|-------------------------|------------------|
C# :------------------|10-10-10-10-10-*---------|------------------|
G# :------------------|10-10-10-10-10-*---------|------------------|
C# :--------3-3--3-3--|10-10-10-10-10-*---------|--------5-5--5-5--|

C  :----------------|----------------|----------------|----------------|
B  :----------------|----------------|----------------|----------------|
F# :----------------|----------------|----------------|----------------|
C# :3---------------|----------------|----------------|--------3-*-3-*-|
G# :3---------------|----------------|----------------|--------3-*-3-*-|
C# :3---------------|----------------|----------------|--------3-*-3-*-|

C  :--------------------|------------------------|--------------------|
B  :--------------------|------------------------|--------------------|
F# :--------------------|------------------------|--------------------|
C# :3-3-3-3-3-3-3-3-2---|3-3-3-3-3-3-5-5-5-5-5-5-|5-3-2---6-6-6-6-6-6-|
G# :3-3-3-3-3-3-3-----3-|3-3-3-3-3-3-5-5-5-5-5-5-|5-----3-6-6-6-6-6-6-|
C# :3-3-3-3-3-3-3-------|3-3-3-3-3-3-5-5-5-5-5-5-|5-------6-6-6-6-6-6-|

C  :--------------------|--------------------|--------------------------|
B  :--------------------|--------------------|------11-12-11------------|
F# :--------------------|--------------------|---------------12-9-------|
C# :7-5-----7-7-7-7-7-5-|----7-7-7-7-7-5-----|7-7-7---------------12-10-|
G# :7---5-7-7-7-7-7-7---|5-7-7-7-7-7-7---5-7-|7-7-7---------------------|
C# :7-------7-7-7-7-7---|----7-7-7-7-7-------|7-7-7---------------------|

C  :--------------------|------------------------|--------------------|
B  :--------------------|------------------------|--------------------|
F# :--------------------|------------------------|--------------------|
C# :3-3-3-3-3-3-3-3-2---|3-3-3-3-3-3-5-5-5-5-5-5-|5-3-2---6-6-6-6-6-6-|
G# :3-3-3-3-3-3-3-----3-|3-3-3-3-3-3-5-5-5-5-5-5-|5-----3-6-6-6-6-6-6-|
C# :3-3-3-3-3-3-3-------|3-3-3-3-3-3-5-5-5-5-5-5-|5-------6-6-6-6-6-6-|

C  :--------------------|------------------------|------------------|
B  :--------------------|------------------------|------------------|
F# :--------------------|------------------------|------------------|
C# :7-5-----7-7-7-7-7-5-|----7-7-7-7-10-10-10-10-|10-10-*-----------|
G# :7---5-7-7-7-7-7-7---|5-7-7-7-7-7-10-10-10-10-|10-10-*-----------|
C# :7-------7-7-7-7-7---|----7-7-7-7-10-10-10-10-|10-10-*-----------|

C  :----------------|----------------|----------------|----------------|
B  :----------------|----------------|----------------|----------------|
F# :----------------|----------------|----------------|----------------|
C# :0-0-0-0-0-0-0-0-|0-0-0-0-3-3-3-3-|3-3-3-3-3-3-3-3-|7-7-7-7-7-7-7-7-|
G# :0-0-0-0-0-0-0-0-|0-0-0-0-3-3-3-3-|3-3-3-3-3-3-3-3-|7-7-7-7-7-7-7-7-|
C# :0-0-0-0-0-0-0-0-|0-0-0-0-3-3-3-3-|3-3-3-3-3-3-3-3-|7-7-7-7-7-7-7-7-|

C  :----------------|----------------------|----------------|
B  :----------------|----------------------|----------------|
F# :----------------|----------------------|----------------|
C# :7-7-7-7-5-5-5-5-|5-5-10-10-10-10-10-10-|0-0-0-0-0-0-0-0-|
G# :7-7-7-7-5-5-5-5-|5-5-10-10-10-10-10-10-|0-0-0-0-0-0-0-0-|
C# :7-7-7-7-5-5-5-5-|5-5-10-10-10-10-10-10-|0-0-0-0-0-0-0-0-|

C  :----------------|----------------|----------------|----------------|
B  :----------------|----------------|----------------|----------------|
F# :----------------|----------------|----------------|----------------|
C# :0-0-0-0-3-3-3-3-|3-3-3-3-3-3-3-3-|7-7-7-7-7-7-7-7-|7-7-7-7-5-5-5-5-|
G# :0-0-0-0-3-3-3-3-|3-3-3-3-3-3-3-3-|7-7-7-7-7-7-7-7-|7-7-7-7-5-5-5-5-|
C# :0-0-0-0-3-3-3-3-|3-3-3-3-3-3-3-3-|7-7-7-7-7-7-7-7-|7-7-7-7-5-5-5-5-|

C  :----------------|----------------|----------------|----------------|
B  :----------------|----------------|----------------|----------------|
F# :----------------|----------------|----------------|----------------|
C# :5-5-5-5-5-5-5-5-|0-0-0-0-0-0-0-0-|0-0-0-0-3-3-3-3-|3-3-3-3-3-3-3-3-|
G# :5-5-5-5-5-5-5-5-|0-0-0-0-0-0-0-0-|0-0-0-0-3-3-3-3-|3-3-3-3-3-3-3-3-|
C# :5-5-5-5-5-5-5-5-|0-0-0-0-0-0-0-0-|0-0-0-0-3-3-3-3-|3-3-3-3-3-3-3-3-|

C  :----------------|----------------|----------------------|
B  :----------------|----------------|----------------------|
F# :----------------|----------------|----------------------|
C# :7-7-7-7-7-7-7-7-|7-7-7-7-5-5-5-5-|5-5-10-10-10-10-10-10-|
G# :7-7-7-7-7-7-7-7-|7-7-7-7-5-5-5-5-|5-5-10-10-10-10-10-10-|
C# :7-7-7-7-7-7-7-7-|7-7-7-7-5-5-5-5-|5-5-10-10-10-10-10-10-|

C  :----------------|----------------|----------------|----------------|
B  :----------------|----------------|----------------|----------------|
F# :----------------|----------------|----------------|----------------|
C# :0-0-0-0-0-0-0-0-|0-0-0-0-3-3-3-3-|3-3-3-3-3-3-3-3-|7-7-7-7-7-7-7-7-|
G# :0-0-0-0-0-0-0-0-|0-0-0-0-3-3-3-3-|3-3-3-3-3-3-3-3-|7-7-7-7-7-7-7-7-|
C# :0-0-0-0-0-0-0-0-|0-0-0-0-3-3-3-3-|3-3-3-3-3-3-3-3-|7-7-7-7-7-7-7-7-|

C  :----------------|----------------|----------------|----------------|
B  :----------------|----------------|----------------|----------------|
F# :----------------|----------------|----------------|----------------|
C# :7-7-7-7-5-5-5-5-|5-5-5-5-5-5-5-5-|3-3-3-3-3-3-3-3-|3-3-3-3-5-5-5-5-|
G# :7-7-7-7-5-5-5-5-|5-5-5-5-5-5-5-5-|3-3-3-3-3-3-3-3-|3-3-3-3-5-5-5-5-|
C# :7-7-7-7-5-5-5-5-|5-5-5-5-5-5-5-5-|3-3-3-3-3-3-3-3-|3-3-3-3-5-5-5-5-|

C  :----------------|----------------|--------------------|
B  :----------------|----------------|--------------------|
F# :----------------|----------------|--------------------|
C# :5-5-5-5-5-5-5-5-|7-7-7-7-7-7-7-7-|7-7-7-7-10-10-10-10-|
G# :5-5-5-5-5-5-5-5-|7-7-7-7-7-7-7-7-|7-7-7-7-10-10-10-10-|
C# :5-5-5-5-5-5-5-5-|7-7-7-7-7-7-7-7-|7-7-7-7-10-10-10-10-|

C  :------------------|----------------|----------------|----------------|
B  :------------------|----------------|----------------|----------------|
F# :------------------|----------------|----------------|----------------|
C# :10-10-9-9-9-9-9-9-|3-3-3-3-3-3-3-3-|3-3-3-3-0-0-0-0-|0-0-0-0-0-0-0-0-|
G# :10-10-9-9-9-9-9-9-|3-3-3-3-3-3-3-3-|3-3-3-3-0-0-0-0-|0-0-0-0-0-0-0-0-|
C# :10-10-9-9-9-9-9-9-|3-3-3-3-3-3-3-3-|3-3-3-3-0-0-0-0-|0-0-0-0-0-0-0-0-|

C  :----------------|----------------|----------------|
B  :----------------|----------------|----------------|
F# :----------------|----------------|----------------|
C# :7-7-7-7-7-7-7-7-|7-7-7-7-7-7-7-7-|7-7-7-*---------|
G# :7-7-7-7-7-7-7-7-|7-7-7-7-7-7-7-7-|7-7-7-*---------|
C# :7-7-7-7-7-7-7-7-|7-7-7-7-7-7-7-7-|7-7-7-*---------|
Tap to rate this tab
# A B C D E F G H I J K L M N O P Q R S T U V W X Y Z