Song name
# A B C D E F G H I J K L M N O P Q R S T U V W X Y Z

Misc Unsigned Bands - Goodbye Blue Skies - Long Island Iced Tea Party tab

Long Island Iced Tea Party (Fill in Guitar).txt

C  :----------------|----------------|----------------|----------------|
B  :----------------|----------------|----------------|----------------|
F# :----------------|----------------|----------------|----------------|
C# :0---------------|----------------|----------------|----------------|
G# :0---------------|----------------|----------------|----------------|
C# :0---------------|----------------|----------------|----------------|

C  :----------------|----------------|----------------|----------------|
B  :----------------|----------------|----------------|----------------|
F# :----------------|----------------|----------------|----------------|
C# :0---------------|----------------|----------------|----------------|
G# :0---------------|----------------|----------------|----------------|
C# :0---------------|----------------|----------------|----------------|

C  :--------------------|-----------------------|--------------------|
B  :--------------------|-----------------------|--------------------|
F# :--------------------|-----------------------|--------------------|
C# :0-0--0-0--0-0--0-0--|------0-7-7-7-7-7-7-7-7|0-0--0-0--0-0--0-0--|
G# :0-0--0-0--0-0--0-0--|------0-8-8-8-8-8-8-8-8|0-0--0-0--0-0--0-0--|
C# :0-0--0-0--0-0--0-0--|------0----------------|0-0--0-0--0-0--0-0--|

C  :-----------------------|--------------------|-----------------------|
B  :-----------------------|--------------------|-----------------------|
F# :-----------------------|--------------------|-----------------------|
C# :------0-7-7-7-7-7-7-7-7|0-0--0-0--0-0--0-0--|------0-7-7-7-7-7-7-7-7|
G# :------0-8-8-8-8-8-8-8-8|0-0--0-0--0-0--0-0--|------0-8-8-8-8-8-8-8-8|
C# :------0----------------|0-0--0-0--0-0--0-0--|------0----------------|

C  :--------------------|-----------------------|--------------------|
B  :--------------------|-----------------------|--------------------|
F# :--------------------|-----------------------|--------------------|
C# :0-0--0-0--0-0--0-0--|------0-7-7-7-7-7-7-7-7|--------------------|
G# :0-0--0-0--0-0--0-0--|------0-8-8-8-8-8-8-8-8|--------------------|
C# :0-0--0-0--0-0--0-0--|------0----------------|0-0--0-0--0-0--0-0--|

C  :-----------------------|--------------------|----------------|
B  :-----------------------|--------------------|----------------|
F# :-----------------------|--------------------|----------------|
C# :--------7-7-7-7-7-7-7-7|--------------------|--------7-7-7-7-|
G# :--------8-8-8-8-8-8-8-8|--------------------|--------7-7-7-7-|
C# :------0----------------|0-0--0-0--0-0--0-0--|------0-7-7-7-7-|

C  :-------------------|----------------4---|-------------------|
B  :--0-7-9-0-5-7-0-12-|9-0-0-7-9-7-0-4---4-|*-0-7-9-0-5-7-0-12-|
F# :-------------------|--------------------|-------------------|
C# :*------------------|--------------------|-------------------|
G# :*------------------|--------------------|-------------------|
C# :*------------------|--------------------|-------------------|

C  :----------------4---|-------------------|----------------4---|
B  :9-0-0-7-9-7-0-4---4-|*-0-7-9-0-5-7-0-12-|9-0-0-7-9-7-0-4---4-|
F# :--------------------|-------------------|--------------------|
C# :--------------------|-------------------|--------------------|
G# :--------------------|-------------------|--------------------|
C# :--------------------|-------------------|--------------------|

C  :-------------------|----------------4---|-------------------|
B  :*-0-7-9-0-5-7-0-12-|9-0-0-7-9-7-0-4---4-|*-0-7-9-0-5-7-0-12-|
F# :-------------------|--------------------|-------------------|
C# :-------------------|--------------------|-------------------|
G# :-------------------|--------------------|-------------------|
C# :-------------------|--------------------|-------------------|

C  :----------------4---|-------------------|----------------4---|
B  :9-0-0-7-9-7-0-4---4-|*-0-7-9-0-5-7-0-12-|9-0-0-7-9-7-0-4---4-|
F# :--------------------|-------------------|--------------------|
C# :--------------------|-------------------|--------------------|
G# :--------------------|-------------------|--------------------|
C# :--------------------|-------------------|--------------------|

C  :-------------------|----------------4---|-------------------|
B  :*-0-7-9-0-5-7-0-12-|9-0-0-7-9-7-0-4---4-|*-0-7-9-0-5-7-0-12-|
F# :-------------------|--------------------|-------------------|
C# :-------------------|--------------------|-------------------|
G# :-------------------|--------------------|-------------------|
C# :-------------------|--------------------|-------------------|

C  :----------------4---|----------------|----------------|----------------|
B  :9-0-0-7-9-7-0-4---4-|*---------------|----------------|----------------|
F# :--------------------|----------------|----------------|----------------|
C# :--------------------|----------------|----------------|0-0-------------|
G# :--------------------|----------------|----------------|0-0-------------|
C# :--------------------|----------------|----------------|1-1-------------|

C  :------------------|----------------|------------4---|----------------|
B  :------------------|----------------|----------4---4-|----------------|
F# :------------------|----------------|----------------|----------------|
C# :----------0-0-0-0-|0-0-----------0-|8-0-----0-------|0-0-------------|
G# :----------0-0-0-0-|0-0-----------0-|8-0-5-7-0-------|0-0-------------|
C# :----------1-1-1-1-|1-1-----------1-|8-0-----0-------|1-1-------------|

C  :------------------|----------------|------------4---|----------------|
B  :------------------|----------------|----------4---4-|----------------|
F# :------------------|----------------|----------------|----------------|
C# :----------0-0-0-0-|0-0-----------0-|8-0-----0-------|0-0-*-----------|
G# :----------0-0-0-0-|0-0-----------0-|8-0-5-7-0-------|0-0-*-----------|
C# :----------1-1-1-1-|1-1-----------1-|8-0-----0-------|0-0-*-----------|

C  :------------------|----------------|------------4---|----------------|
B  :------------------|----------------|----------4---4-|----------------|
F# :------------------|----------------|----------------|----------------|
C# :----------0-0-0-0-|0-0-*---------0-|8-0-----0-------|0-0-------------|
G# :----------0-0-0-0-|0-0-*---------0-|8-0-5-7-0-------|0-0-------------|
C# :----------0-0-0-0-|0-0-*---------0-|8-0-----0-------|0-0-------------|

C  :------------------|----------------|------------4---|
B  :------------------|----------------|----------4---4-|
F# :------------------|----------------|----------------|
C# :----------0-0-0-0-|0-0-----------0-|8-0-----0-------|
G# :----------0-0-0-0-|0-0-----------0-|8-0-5-7-0-------|
C# :----------0-0-0-0-|0-0-----------0-|8-0-----0-------|

C  :---------------------|----------------|---------------------|
B  :---------------------|----------------|---------------------|
F# :---------------------|----------------|---------------------|
C# :0-0-------0-0-0-0-0-0|0-0-0-0---0-0-0-|0-0-------0-0-0-0-0-0|
G# :0-0-------0-0-0-0-0-0|0-0-0-0---0-0-0-|0-0-------0-0-0-0-0-0|
C# :0-0-------0-0-0-0-0-0|0-0-0-0---0-0-0-|0-0-------0-0-0-0-0-0|

C  :------------4---|---------------------|----------------|
B  :----------4---4-|---------------------|----------------|
F# :----------------|---------------------|----------------|
C# :8-0-----0-------|0-0-------0-0-0-0-0-0|0-0-0-0---0-0-0-|
G# :8-0-5-7-0-------|0-0-------0-0-0-0-0-0|0-0-0-0---0-0-0-|
C# :8-0-----0-------|0-0-------0-0-0-0-0-0|0-0-0-0---0-0-0-|

C  :---------------------|------------4---|---------------------|
B  :---------------------|----------4---4-|---------------------|
F# :---------------------|----------------|---------------------|
C# :0-0-------0-0-0-0-0-0|8-0-----0-------|0-0-------0-0-0-0-0-0|
G# :0-0-------0-0-0-0-0-0|8-0-5-7-0-------|0-0-------0-0-0-0-0-0|
C# :0-0-------0-0-0-0-0-0|8-0-----0-------|0-0-------0-0-0-0-0-0|

C  :----------------|---------------------|------------4---|
B  :----------------|---------------------|----------4---4-|
F# :----------------|---------------------|----------------|
C# :0-0-0-0---0-0-0-|0-0-------0-0-0-0-0-0|8-0-----0-------|
G# :0-0-0-0---0-0-0-|0-0-------0-0-0-0-0-0|8-0-5-7-0-------|
C# :0-0-0-0---0-0-0-|0-0-------0-0-0-0-0-0|8-0-----0-------|

C  :---------------------|----------------|---------------------|
B  :---------------------|----------------|---------------------|
F# :---------------------|----------------|---------------------|
C# :5-5-------5-5-5-5-5-5|5-5-5-5---5-5-5-|8-8-------8-8-8-8-8-8|
G# :5-5-------5-5-5-5-5-5|5-5-5-5---5-5-5-|8-8-------8-8-8-8-8-8|
C# :5-5-------5-5-5-5-5-5|5-5-5-5---5-5-5-|8-8-------8-8-8-8-8-8|

C  :------------4---|----------------|----------------|----------------|
B  :----------4---4-|----------------|----------------|----------------|
F# :----------------|----------------|----------------|----------------|
C# :8-0-----0-------|3-3-3-3-3-3-3-3-|3-3-3-3-3-3-3-7-|--5-5-5-5-5-5-8-|
G# :8-0-5-7-0-------|3-3-3-3-3-3-3-3-|3-3-3-3-3-3-3-7-|--5-5-5-5-5-5-8-|
C# :8-0-----0-------|3-3-3-3-3-3-3-3-|3-3-3-3-3-3-3-7-|--5-5-5-5-5-5-8-|

C  :----------------|----------------|-------------------|----------------|
B  :----------------|----------------|-------------------|----------------|
F# :----------------|----------------|-------------------|----------------|
C# :--7-7-7-7-7-7-7-|3-3-------------|----------0-0-0-0-0|3-3-------------|
G# :--7-7-7-7-7-7-7-|0-0-------------|----------0-0-0-0-0|0-0-------------|
C# :--7-7-7-7-7-7-7-|0-0-------------|----------0-0-0-0-0|0-0-------------|

C  :---------------------|----------------|----------------|
B  :---------------------|----------------|----------------|
F# :---------------------|----------------|----------------|
C# :----------0-0-0-0-0-0|3-3-3-3-3-3-3-3-|3-3-3-3-3-3-3-7-|
G# :----------0-0-0-0-0-0|3-3-3-3-3-3-3-3-|3-3-3-3-3-3-3-7-|
C# :----------0-0-0-0-0-0|3-3-3-3-3-3-3-3-|3-3-3-3-3-3-3-7-|

C  :----------------|----------------|----------------|-------------------|
B  :----------------|----------------|----------------|-------------------|
F# :----------------|----------------|----------------|-------------------|
C# :--5-5-5-5-5-5-8-|--7-7-7-7-7-7-7-|3-3-------------|----------0-0-0-0-0|
G# :--5-5-5-5-5-5-8-|--7-7-7-7-7-7-7-|0-0-------------|----------0-0-0-0-0|
C# :--5-5-5-5-5-5-8-|--7-7-7-7-7-7-7-|0-0-------------|----------0-0-0-0-0|

C  :----------------|---------------------|----------------|
B  :----------------|---------------------|----------------|
F# :----------------|---------------------|----------------|
C# :3-3-------------|----------0-0-0-0-0-0|0---------------|
G# :0-0-------------|----------0-0-0-0-0-0|0---------------|
C# :0-0-------------|----------0-0-0-0-0-0|0---------------|

C  :----------------|----------------|----------------|
B  :----------------|----------------|----------------|
F# :----------------|----------------|----------------|
C# :----------------|----------------|----------------|
G# :----------------|----------------|----------------|
C# :----------------|----------------|----------------|

C  :-----------------------|--------------------|-----------------------|
B  :-----------------------|--------------------|-----------------------|
F# :-----------------------|--------------------|-----------------------|
C# :0-0--0-0----0-0-0-0-0-0|0-0--0-0--0-0--0-0--|0-0--0-0----0-0-0-0-0-0|
G# :0-0--0-0----0-0-0-0-0-0|0-0--0-0--0-0--0-0--|0-0--0-0----0-0-0-0-0-0|
C# :0-0--0-0----0-0-0-0-0-0|0-0--0-0--0-0--0-0--|0-0--0-0----0-0-0-0-0-0|

C  :--------------------|-----------------------|--------------------|
B  :--------------------|-----------------------|--------------------|
F# :--------------------|-----------------------|--------------------|
C# :0-0--0-0--0-0--0-0--|0-0-*0-0-*--0-0-0-0-0-0|0-0-*0-0-*0-0-*0-0-*|
G# :0-0--0-0--0-0--0-0--|0-0-*0-0-*--0-0-0-0-0-0|0-0-*0-0-*0-0-*0-0-*|
C# :0-0--0-0--0-0--0-0--|0-0-*0-0-*--0-0-0-0-0-0|0-0-*0-0-*0-0-*0-0-*|

C  :-----------------------|--------------------|-------------------|
B  :-----------------------|--------------------|-------------------|
F# :-----------------------|--------------------|-------------------|
C# :0-0-*0-0-*--0-0-0-0-0-0|0-0-*0-0-*0-0-*0-0-*|0-0--0-0--0-0------|
G# :0-0-*0-0-*--0-0-0-0-0-0|0-0-*0-0-*0-0-*0-0-*|0-0--0-0--0-0------|
C# :0-0-*0-0-*--0-0-0-0-0-0|0-0-*0-0-*0-0-*0-0-*|0-0--0-0--0-0------|

C  :------------------------|-------------------|------------------------|
B  :------------------------|-------------------|------------------------|
F# :------------------------|-------------------|------------------------|
C# :--0-0-0-0-0-0-0-0--0-0--|0-0--0-0--0-0------|--0-0-0-0-0-0-0-0--0-0--|
G# :--0-0-0-0-0-0-0-0--0-0--|0-0--0-0--0-0------|--0-0-0-0-0-0-0-0--0-0--|
C# :--0-0-0-0-0-0-0-0--0-0--|0-0--0-0--0-0------|--0-0-0-0-0-0-0-0--0-0--|

C  :-------------------|------------------------|-------------------|
B  :-------------------|------------------------|-------------------|
F# :-------------------|------------------------|-------------------|
C# :-------------------|------------------------|-------------------|
G# :-------------------|------------------------|-------------------|
C# :0-0--0-0--0-0------|--0-0-0-0-0-0-0-0--0-0--|0-0--0-0--0-0------|

C  :------------------------|----------------|
B  :------------------------|----------------|
F# :------------------------|----------------|
C# :------------------------|0-*-------------|
G# :------------------------|0-*-------------|
C# :--0-0-0-0-0-0-0-0--0-0--|0-*-------------|
Tap to rate this tab
 
# A B C D E F G H I J K L M N O P Q R S T U V W X Y Z