Song name
# A B C D E F G H I J K L M N O P Q R S T U V W X Y Z

Misc Unsigned Bands - Zeher - Agar Tum Mil Jao tab

--------------0--------------------------|
-----0--------0-------0-------0----------|
-------0----------------0-------0--------|
---2------2---------2-------2-----2------|   x 2
-2--------2-------2-------2---------2----|
-0----------------0-------0--------------|



---------------------------------------------------------------|
-12h13-12h13-12h13-12h13-12h13-12h13-12h13-12----------12------|
----------------------------------------------14-12-14----14---|
---------------------------------------------------------------|
---------------------------------------------------------------|
---------------------------------------------------------------|



-------------------------------------------------------------------|
-------------------------------------------------------------------|
-14h16-14h16-14h16-14h16-14h16-14h16-14h16-17-16-14-12-11-12-14-12-|
-------------------------------------------------------------------|
-------------------------------------------------------------------|
-------------------------------------------------------------------|



-----------------------------------|
-----------------------------------|
-18-16-14-11------16-14-12---------|
---------------------------14------|
-----------------------------------|
-----------------------------------|



-----------10--------------------------------------------------------|
-s/7-9-7-9----7-9-7-9-s/12-12-12-9-7-7--(you can choose to play this-|
-----------------------------------------one octave higher too)------|
---------------------------------------------------------------------|
---------------------------------------------------------------------|
---------------------------------------------------------------------|

         D
Agar tum mil jao

       Em         Em
Zamana chod denge hum

         D
Agar tum mil jao

       Em         Em
Zamana chod denge hum

         D
Agar tum mil jao

       Em         Em
Zamana chod denge hum

          D          D              Em
Tumhe paa kar zamane bhar se rishta tod denge hum

         D
Agar tum mil jao

       Em         Em
Zamana chod denge hum

         D
Agar tum mil jao

       Em         Em
Zamana chod denge hum



Em D
Em C D
Em D


       Em                     D             Em
Bina tere koyi dilkash nazara hum na dekheinge

       Em                     D             Em
Bina tere koyi dilkash nazara hum na dekheinge

         Em                    D             Em
Tumhe na ho pasand usko dobara hum na dekheinge

        D             Em
Teri soorat na ho jis mein

(Em)    D             Em
Teri soorat na ho jis mein

            Em        Em
Woh sheesha tod denge hum

         D
Agar tum mil jao

       Em         Em
Zamana chod denge hum


Intro again... then use the same chords
Tap to rate this tab
# A B C D E F G H I J K L M N O P Q R S T U V W X Y Z