Song name
# A B C D E F G H I J K L M N O P Q R S T U V W X Y Z

Misc Unsigned Bands - Semi Automatic Double Decker Bus - Telegram tab

This song is by a small Perth band formed in Leederville Tafe. Pretty cool tune.

b = Bend
r = Release Bend
p = Pull Off

Main Riff
---------------------------|
---------------------------|
---5brp3p0--5brp3p0--------|
---------------------3-3---|
---------------------------|  Play this a few times
---------------------------|

Eventually it plays the same riff but instead of playing those individual 3s on the D 
string , play an F Power chord from the E string.

Verse
---------------------------|
---------------------------|
---------------------------|
-3-3-3-5-------------------|
-3-3-3-5-------------------|
-1-1-1-3-------------------|

Chorus
----------------------------|
----------------------------|
--------10--9---------------|
--5-5-x-10--9--2-2-3--------|
--5-5-x-8---7--2-2-3--------| and this repeats 3 or 4 times.
--3-3-x--------0-0-1--------|

Haven't got the solo yet , if i take the time to figure it out i'll add it on.
Tap to rate this tab
# A B C D E F G H I J K L M N O P Q R S T U V W X Y Z