Song name
# A B C D E F G H I J K L M N O P Q R S T U V W X Y Z

Misc Unsigned Bands - Low Altitude Sickness - Revolute Actuality tab

-------------------------------------------------------------------------------
		          REVOLUTE ACTUALITY - Low Altitude Sickness
-------------------------------------------------------------------------------
Guitar Written & Tabbed by: Henry
Lyrics Written by: Henry
Email: smallandmighty@live.co.uk

Tuning: Drop D (DADGBe)
Played with distortion
Guitar 1: Rhythm
Guitar 2: Lead

(lyrics included at the bottom of the page)


INTRO PART I:
  Guitar 1
e|--------------------------------|--------------------------------|
B|--------------------------------|--------------------------------|
G|-----------------3---3-3-3-6/7\6|-----------------3---3-3-3-6/7\6|
D|-4-4-4-4-4-4-4-4----------------|-4-4-4-4-4-4-4-4----------------|
A|-2-2-2-2-2-2-2-2----------------|-2-2-2-2-2-2-2-2----------------|
D|--------------------------------|--------------------------------|
 |
 |Guitar 2
e|--------------------------------|--------------------------------|
B|--------------------------------|--------------------------------|
G|-9-9-9-9-9-9-9-9----------------|-9-9-9-9-9-9-9-9----------------|
D|-x-x-x-x-x-x-x-x----------------|-x-x-x-x-x-x-x-x----------------|
A|-7-7-7-7-7-7-7-7----------------|-7-7-7-7-7-7-7-7----------------|
D|--------------------------------|--------------------------------|

  Guitar 1
e|--------------------------------|--------------------------------|
B|--------------------------------|--------------------------------|
G|--------------------------------|-4-4-4-4-4-4-4-4----------------|
D|-4-4-4-4-4-4-4-4-2-2-2-2-2-2-2-2|-2-2-2-2-2-2-2-2----------------|
A|-2-2-2-2-2-2-2-2-0-0-0-0-0-0-0-0|-----------------4-4-4-4-4-4-4-4|
D|--------------------------------|-----------------4-4-4-4-4-4-4-4|
 |
 |Guitar 2
e|--------------------------------|--------------------------------|
B|--------------------------------|--------------------------------|
G|-9-9-9-9-9-9-9-9----------------|1111111111111111-8-8-8-8-8-8-8-8|
D|-x-x-x-x-x-x-x-x-9-9-9-9-9-9-9-9|-x-x-x-x-x-x-x-x-x-x-x-x-x-x-x-x|
A|-7-7-7-7-7-7-7-7-x-x-x-x-x-x-x-x|-9-9-9-9-9-9-9-9-6-6-6-6-6-6-6-6|
D|-----------------9-9-9-9-9-9-9-9|--------------------------------|

  Guitar 1
e|--------------------------------|--------------------------------|
B|--------------------------------|--------------------------------|
G|-----------------3---3-3-3-6/7\6|-----------------3---3-3-3-6/7\6|
D|-4-4-4-4-4-4-4-4----------------|-4-4-4-4-4-4-4-4----------------|
A|-2-2-2-2-2-2-2-2----------------|-2-2-2-2-2-2-2-2----------------|
D|--------------------------------|--------------------------------|
 |
 |Guitar 2
e|--------------------------------|--------------------------------|
B|--------------------------------|--------------------------------|
G|-9-9-9-9-9-9-9-9----------------|-9-9-9-9-9-9-9-9----------------|
D|-x-x-x-x-x-x-x-x----------------|-x-x-x-x-x-x-x-x----------------|
A|-7-7-7-7-7-7-7-7----------------|-7-7-7-7-7-7-7-7----------------|
D|--------------------------------|--------------------------------|

  Guitar 1
e|--------------------------------|--------------------------------|
B|--------------------------------|--------------------------------|
G|--------------------------------|-4-4-4-4-4-4-4-4-2---2-2-2-2-2-2|
D|-4-4-4-4-4-4-4-4-2-2-2-2-2-2-2-2|-2-2-2-2-2-2-2-2-0---0-0-0-0-0-0|
A|-2-2-2-2-2-2-2-2-0-0-0-0-0-0-0-0|--------------------------------|
D|--------------------------------|--------------------------------|
 |                                                     PM----------|
 |Guitar 2
e|--------------------------------|--------------------------------|
B|--------------------------------|--------------------------------|
G|-9-9-9-9-9-9-9-9----------------|111111111111111111~-------------|
D|-x-x-x-x-x-x-x-x-9-9-9-9-9-9-9-9|-x-x-x-x-x-x-x-x-x~-------------|
A|-7-7-7-7-7-7-7-7-x-x-x-x-x-x-x-x|-9-9-9-9-9-9-9-9-9~-------------|
D|-----------------9-9-9-9-9-9-9-9|--------------------------------|


INTRO PART II/CHORUS 1:
  Guitar 1
e|--------------------------------|--------------------------------|
B|--------------------------------|--------------------------------|
G|--------------------------------|-4-4-4-4-4-4-4-4----------------|
D|-4-4-4-4-4-4-4-4-2-2-2-2-2-2-2-2|-2-2-2-2-2-2-2-2----------------|
A|-2-2-2-2-2-2-2-2-0-0-0-0-0-0-0-0|-----------------4-4-4-4-4-4-4-4|
D|--------------------------------|-----------------4-4-4-4-4-4-4-4|
 |
 |Guitar 2
e|--------------------------------|--------------------------------|
B|--------------------------------|--------------------------------|
G|-9-9-9-9-9-9-9-9----------------|1111111111111111-8-8-8-8-8-8-8-8|
D|-x-x-x-x-x-x-x-x-9-9-9-9-9-9-9-9|-x-x-x-x-x-x-x-x-x-x-x-x-x-x-x-x|
A|-7-7-7-7-7-7-7-7-x-x-x-x-x-x-x-x|-9-9-9-9-9-9-9-9-6-6-6-6-6-6-6-6|
D|-----------------9-9-9-9-9-9-9-9|--------------------------------|

  Guitar 1
e|--------------------------------|--------------------------------|
B|--------------------------------|--------------------------------|
G|--------------------------------|-4-4-4-4-4-4-4-4-2-2-2-2-2-2-2-2|
D|-4-4-4-4-4-4-4-4-2-2-2-2-2-2-2-2|-2-2-2-2-2-2-2-2-0-0-0-0-0-0-0-0|
A|-2-2-2-2-2-2-2-2-0-0-0-0-0-0-0-0|--------------------------------|
D|--------------------------------|--------------------------------|
 |
 |Guitar 2
e|--------------------------------|--------------------------------|
B|--------------------------------|--------------------------------|
G|-9-9-9-9-9-9-9-9----------------|11111111111111111313131313131313|
D|-x-x-x-x-x-x-x-x-9-9-9-9-9-9-9-9|-x-x-x-x-x-x-x-x-x-x-x-x-x-x-x-x|
A|-7-7-7-7-7-7-7-7-x-x-x-x-x-x-x-x|-9-9-9-9-9-9-9-91111111111111111|
D|-----------------9-9-9-9-9-9-9-9|--------------------------------|

  Guitar 1
e|--------------------------------|--------------------------------|
B|--------------------------------|--------------------------------|
G|--------------------------------|-4-4-4-4-4-4-4-4----------------|
D|-4-4-4-4-4-4-4-4-2-2-2-2-2-2-2-2|-2-2-2-2-2-2-2-2----------------|
A|-2-2-2-2-2-2-2-2-0-0-0-0-0-0-0-0|-----------------4-4-4-4-4-4-4-4|
D|--------------------------------|-----------------4-4-4-4-4-4-4-4|
 |
 |Guitar 2
e|--------------------------------|--------------------------------|
B|--------------------------------|--------------------------------|
G|-9-9-9-9-9-9-9-9----------------|1111111111111111-8-8-8-8-8-8-8-8|
D|-x-x-x-x-x-x-x-x-9-9-9-9-9-9-9-9|-x-x-x-x-x-x-x-x-x-x-x-x-x-x-x-x|
A|-7-7-7-7-7-7-7-7-x-x-x-x-x-x-x-x|-9-9-9-9-9-9-9-9-6-6-6-6-6-6-6-6|
D|-----------------9-9-9-9-9-9-9-9|--------------------------------|

  Guitar 1
e|--------------------------------|--------------------------------|
B|--------------------------------|--------------------------------|
G|--------------------------------|--------------------------------|
D|-4-4-4-4-4-4-4-4-2-2-2-2-2-2-2-2|-9-9-9-9-9-9-9-9----------------|
A|-2-2-2-2-2-2-2-2-0-0-0-0-0-0-0-0|-7-7-7-7-7-7-7-7----------------|
D|--------------------------------|--------------------------------|
 |
 |Guitar 2
e|--------------------------------|----------------+5------+7------|
B|--------------------------------|----------------+5------+7------|
G|-9-9-9-9-9-9-9-9----------------|1111111111111111----------------|
D|-x-x-x-x-x-x-x-x-9-9-9-9-9-9-9-9|-x-x-x-x-x-x-x-x----------------|
A|-7-7-7-7-7-7-7-7-x-x-x-x-x-x-x-x|-9-9-9-9-9-9-9-9----------------|
D|-----------------9-9-9-9-9-9-9-9|--------------------------------|

VERSE 1:
  Guitar 1
e|--------------------------------|--------------------------------|
B|--------------------------------|--------------------------------|
G|--------------------------------|--------------------------------|
D|-6---6---6-6-6-6-6-6-6-6-6-6-6-6|-6---6---6-6-6-6-6-6-6-6-6-6-6-6|
A|-6---6---6-6-6-6-6-6-6-6-6-6-6-6|-6---6---6-6-6-6-6-6-6-6-6-6-6-6|
D|-6---6---6-6-6-6-6-6-6-6-6-6-6-6|-6---6---6-6-6-6-6-6-6-6-6-6-6-6|
 |
 |Guitar 2
e|--------------------------------|--------------------------------|
B|---------------8----------------|---------------8----------------|
G|-----------------------8-----7--|-----------------------8-----7--|
D|-6---6---6-6-6-----6-6-----6----|-6---6---6-6-6-----6-6-----6----|
A|-6---6---6-6-6-----6-6-----6----|-6---6---6-6-6-----6-6-----6----|
D|-6---6---6-6-6-----6-6-----6----|-6---6---6-6-6-----6-6-----6----|

  Guitar 1
e|--------------------------------|--------------------------------|
B|--------------------------------|--------------------------------|
G|--------------------------------|--------------------------------|
D|-4---4---4-4-4-4-4-4-4-4-4-4-4-4|-4---4---4-4-4-4-4-4-4-4-4-4-4-4|
A|-4---4---4-4-4-4-4-4-4-4-4-4-4-4|-4---4---4-4-4-4-4-4-4-4-4-4-4-4|
D|-4---4---4-4-4-4-4-4-4-4-4-4-4-4|-4---4---4-4-4-4-4-4-4-4-4-4-4-4|
 |
 |Guitar 2
e|--------------------------------|--------------------------------|
B|---------------4----------------|---------------4----------------|
G|-----------------------6-----5--|-----------------------6-----5--|
D|-4---4---4-4-4-----4-4-----4----|-4---4---4-4-4-----4-4-----4----|
A|-4---4---4-4-4-----4-4-----4----|-4---4---4-4-4-----4-4-----4----|
D|-4---4---4-4-4-----4-4-----4----|-4---4---4-4-4-----4-4-----4----|

  Guitar 1
e|--------------------------------|--------------------------------|
B|--------------------------------|--------------------------------|
G|--------------------------------|--------------------------------|
D|-6---6---6-6-6-6-6-6-6-6-6-6-6-6|-6---6---6-6-6-6-6-6-6-6-6-6-6-6|
A|-6---6---6-6-6-6-6-6-6-6-6-6-6-6|-6---6---6-6-6-6-6-6-6-6-6-6-6-6|
D|-6---6---6-6-6-6-6-6-6-6-6-6-6-6|-6---6---6-6-6-6-6-6-6-6-6-6-6-6|
 |
 |Guitar 2
e|--------------------------------|--------------------------------|
B|---------------8----------------|---------------8----------------|
G|-----------------------8-----7--|-----------------------8-----7--|
D|-6---6---6-6-6-----6-6-----6----|-6---6---6-6-6-----6-6-----6----|
A|-6---6---6-6-6-----6-6-----6----|-6---6---6-6-6-----6-6-----6----|
D|-6---6---6-6-6-----6-6-----6----|-6---6---6-6-6-----6-6-----6----|

  Guitar 1
e|--------------------------------|--------------------------------|
B|--------------------------------|--------------------------------|
G|--------------------------------|--------------------------------|
D|-4---4---4-4-4-4-4-4-4-4-4-4-4-4|-6---6---6-6-6-6-4---4---4-4-4-4|
A|-4---4---4-4-4-4-4-4-4-4-4-4-4-4|-6---6---6-6-6-6-4---4---4-4-4-4|
D|-4---4---4-4-4-4-4-4-4-4-4-4-4-4|-6---6---6-6-6-6-4---4---4-4-4-4|
 |
 |Guitar 2
e|--------------------------------|--------------------------------|
B|---------------4----------------|--------------------------------|
G|-----------------------6-----5--|--------------------------------|
D|-4---4---4-4-4-----4-4-----4----|-6---6---6-6-6-6-4---4---4-4-4-4|
A|-4---4---4-4-4-----4-4-----4----|-6---6---6-6-6-6-4---4---4-4-4-4|
D|-4---4---4-4-4-----4-4-----4----|-6---6---6-6-6-6-4---4---4-4-4-4|

 PRECHORUS 1/INTERLUDE:
  Guitar 1
e|--------------------------------|--------------------------------|
B|--------------------------------|--------------------------------|
G|--------------------------------|--------------------------------|
D|-6-6----------------------------|-6-6----------------------------|
A|-4-4---9-9---7-7---5-5---5-5-5-5|-4-4---9-9---7-7---5-5---7-7-7-7|
D|-------9-9---7-7---5-5---5-5-5-5|-------9-9---7-7---5-5---7-7-7-7|
 |
 |Guitar 2
e|--------------------------------|--------------------------------|
B|--------------------------------|--------------------------------|
G|--------------------------------|--------------------------------|
D|-4~-----------------------------|--------------------------------|
A|-4~-----------------------------|--------------------------------|
D|-4~-----------------------------|--------------------------------|

  Guitar 1
e|--------------------------------|--------------------------------|
B|--------------------------------|--------------------------------|
G|--------------------------------|--------------------------------|
D|-6-6----------------------------|-6-6----------------------------|
A|-4-4---9-9---7-7---5-5---5-5-5-5|-4-4---9-9---7-7---5-5---4-4-4-4|
D|-------9-9---7-7---5-5---5-5-5-5|-------9-9---7-7---5-5---4-4-4-4|
 |
 |Guitar 2
e|--------------------------------|--------------------------------|
B|--------------------------------|--------------------------------|
G|--------------------------------|--------------------------------|
D|-4~-----------------------------|--------------------------------|
A|-4~-----------------------------|--------------------------------|
D|-4~-----------------------------|--------------------------------|

VERSE 2:
  Guitar 1
e|--------------------------------|--------------------------------|
B|--------------------------------|--------------------------------|
G|--------------------------------|--------------------------------|
D|-6---6---6-6-6-6-6-6-6-6-6-6-6-6|-6---6---6-6-6-6-6-6-6-6-6-6-6-6|
A|-6---6---6-6-6-6-6-6-6-6-6-6-6-6|-6---6---6-6-6-6-6-6-6-6-6-6-6-6|
D|-6---6---6-6-6-6-6-6-6-6-6-6-6-6|-6---6---6-6-6-6-6-6-6-6-6-6-6-6|
 |
 |Guitar 2
e|--------------------------------|--------------------------------|
B|---------------8----------------|---------------8----------------|
G|-----------------------8-----7--|-----------------------8-----7--|
D|-6---6---6-6-6-----6-6-----6----|-6---6---6-6-6-----6-6-----6----|
A|-6---6---6-6-6-----6-6-----6----|-6---6---6-6-6-----6-6-----6----|
D|-6---6---6-6-6-----6-6-----6----|-6---6---6-6-6-----6-6-----6----|

  Guitar 1
e|--------------------------------|--------------------------------|
B|--------------------------------|--------------------------------|
G|--------------------------------|--------------------------------|
D|-4---4---4-4-4-4-4-4-4-4-4-4-4-4|-4---4---4-4-4-4-4-4-4-4-4-4-4-4|
A|-4---4---4-4-4-4-4-4-4-4-4-4-4-4|-4---4---4-4-4-4-4-4-4-4-4-4-4-4|
D|-4---4---4-4-4-4-4-4-4-4-4-4-4-4|-4---4---4-4-4-4-4-4-4-4-4-4-4-4|
 |
 |Guitar 2
e|--------------------------------|--------------------------------|
B|---------------4----------------|---------------4----------------|
G|-----------------------6-----5--|-----------------------6-----5--|
D|-4---4---4-4-4-----4-4-----4----|-4---4---4-4-4-----4-4-----4----|
A|-4---4---4-4-4-----4-4-----4----|-4---4---4-4-4-----4-4-----4----|
D|-4---4---4-4-4-----4-4-----4----|-4---4---4-4-4-----4-4-----4----|

 Guitar 1
e|--------------------------------|--------------------------------|
B|--------------------------------|--------------------------------|
G|--------------------------------|--------------------------------|
D|-6---6---6-6-6-6-6-6-6-6-6-6-6-6|-6---6---6-6-6-6-6-6-6-6-6-6-6-6|
A|-6---6---6-6-6-6-6-6-6-6-6-6-6-6|-6---6---6-6-6-6-6-6-6-6-6-6-6-6|
D|-6---6---6-6-6-6-6-6-6-6-6-6-6-6|-6---6---6-6-6-6-6-6-6-6-6-6-6-6|
 |
 |Guitar 2
e|--------------------------------|--------------------------------|
B|---------------8----------------|---------------8----------------|
G|-----------------------8-----7--|-----------------------8-----7--|
D|-6---6---6-6-6-----6-6-----6----|-6---6---6-6-6-----6-6-----6----|
A|-6---6---6-6-6-----6-6-----6----|-6---6---6-6-6-----6-6-----6----|
D|-6---6---6-6-6-----6-6-----6----|-6---6---6-6-6-----6-6-----6----|

  Guitar 1
e|--------------------------------|--------------------------------|
B|--------------------------------|--------------------------------|
G|--------------------------------|--------------------------------|
D|-4---4---4-4-4-4-4-4-4-4-4-4-4-4|-6---6---6-6-6-6-4---4---4-4-4-4|
A|-4---4---4-4-4-4-4-4-4-4-4-4-4-4|-6---6---6-6-6-6-4---4---4-4-4-4|
D|-4---4---4-4-4-4-4-4-4-4-4-4-4-4|-6---6---6-6-6-6-4---4---4-4-4-4|
 |
 |Guitar 2
e|--------------------------------|--------------------------------|
B|---------------4----------------|--------------------------------|
G|-----------------------6-----5--|--------------------------------|
D|-4---4---4-4-4-----4-4-----4----|-6---6---6-6-6-6-4---4---4-4-4-4|
A|-4---4---4-4-4-----4-4-----4----|-6---6---6-6-6-6-4---4---4-4-4-4|
D|-4---4---4-4-4-----4-4-----4----|-6---6---6-6-6-6-4---4---4-4-4-4|

 PRECHORUS 2:
  Guitar 1
e|--------------------------------|--------------------------------|
B|--------------------------------|--------------------------------|
G|--------------------------------|--------------------------------|
D|-6-6----------------------------|-6-6----------------------------|
A|-4-4---9-9---7-7---5-5---5-5-5-5|-4-4---9-9---7-7---5-5---7-7-7-7|
D|-------9-9---7-7---5-5---5-5-5-5|-------9-9---7-7---5-5---7-7-7-7|
 |
 |Guitar 2
e|--------------------------------|--------------------------------|
B|--------------------------------|--------------------------------|
G|--------------------------------|--------------------------------|
D|-4~-----------------------------|--------------------------------|
A|-4~-----------------------------|--------------------------------|
D|-4~-----------------------------|--------------------------------|

  Guitar 1
e|--------------------------------|--------------------------------|
B|--------------------------------|--------------------------------|
G|--------------------------------|--------------------------------|
D|-6-6----------------------------|-6-6----------------------------|
A|-4-4---9-9---7-7---5-5---5-5-5-5|-4-4---9-9---7-7---5-5---4-4-4-4|
D|-------9-9---7-7---5-5---5-5-5-5|-------9-9---7-7---5-5---4-4-4-4|
 |
 |Guitar 2
e|--------------------------------|--------------------------------|
B|--------------------------------|--------------------------------|
G|--------------------------------|--------------------------------|
D|-4~-----------------------------|--------------------------------|
A|-4~-----------------------------|--------------------------------|
D|-4~-----------------------------|--------------------------------|

CHORUS 2 PART I:
  Guitar 1
e|--------------------------------|--------------------------------|
B|--------------------------------|--------------------------------|
G|--------------------------------|-4-4-4-4-4-4-4-4----------------|
D|-4-4-4-4-4-4-4-4-2-2-2-2-2-2-2-2|-2-2-2-2-2-2-2-2----------------|
A|-2-2-2-2-2-2-2-2-0-0-0-0-0-0-0-0|-----------------4-4-4-4-4-4-4-4|
D|--------------------------------|-----------------4-4-4-4-4-4-4-4|
 |
 |Guitar 2
e|--------------------------------|--------------------------------|
B|--------------------------------|--------------------------------|
G|-9-9-9-9-9-9-9-9----------------|1111111111111111-8-8-8-8-8-8-8-8|
D|-x-x-x-x-x-x-x-x-9-9-9-9-9-9-9-9|-x-x-x-x-x-x-x-x-x-x-x-x-x-x-x-x|
A|-7-7-7-7-7-7-7-7-x-x-x-x-x-x-x-x|-9-9-9-9-9-9-9-9-6-6-6-6-6-6-6-6|
D|-----------------9-9-9-9-9-9-9-9|--------------------------------|

  Guitar 1
e|--------------------------------|--------------------------------|
B|--------------------------------|--------------------------------|
G|--------------------------------|-4-4-4-4-4-4-4-4-2-2-2-2-2-2-2-2|
D|-4-4-4-4-4-4-4-4-2-2-2-2-2-2-2-2|-2-2-2-2-2-2-2-2-0-0-0-0-0-0-0-0|
A|-2-2-2-2-2-2-2-2-0-0-0-0-0-0-0-0|--------------------------------|
D|--------------------------------|--------------------------------|
 |
 |Guitar 2
e|--------------------------------|--------------------------------|
B|--------------------------------|--------------------------------|
G|-9-9-9-9-9-9-9-9----------------|11111111111111111313131313131313|
D|-x-x-x-x-x-x-x-x-9-9-9-9-9-9-9-9|-x-x-x-x-x-x-x-x-x-x-x-x-x-x-x-x|
A|-7-7-7-7-7-7-7-7-x-x-x-x-x-x-x-x|-9-9-9-9-9-9-9-91111111111111111|
D|-----------------9-9-9-9-9-9-9-9|--------------------------------|

 CHORUS 2 PART II:
  Guitar 1
e|--------------------------------|--------------------------------|
B|--------------------------------|--------------------------------|
G|--------------------------------|-----------------2-2-2-2-2-2-2-2|
D|-2-2-2-2-2-2-2-2-0-0-0-0-0-0-0-0|-4-4-4-4-4-4-4-4----------------|
A|--------------------------------|--------------------------------|
D|--------------------------------|--------------------------------|
 |PM------------------------------|PM------------------------------|
 |Guitar 2
e|-7-----7-----7-----7------------|-7-----7-----7-----7------------|
B|---7-----7-----7-----7---7---7--|---7-----7-----7-----7---7---7--|
G|-----7-----7-----7-----7---7---7|-----7-----7-----7-----7---7---7|
D|--------------------------------|--------------------------------|
A|--------------------------------|--------------------------------|
D|--------------------------------|--------------------------------|
 PM-------------------------------|PM------------------------------|
  Guitar 1
e|--------------------------------|--------------------------------|
B|--------------------------------|--------------------------------|
G|--------------------------------|13131313131313131111111111111111|
D|-2-2-2-2-2-2-2-2-0-0-0-0-0-0-0-0|--------------------------------|
A|--------------------------------|--------------------------------|
D|--------------------------------|--------------------------------|
 |PM------------------------------|PM------------------------------|
 |Guitar 2
e|-7-----7-----7-----7------------|-7-----7-----7-----7------------|
B|---7-----7-----7-----7---7---7--|---7-----7-----7-----7---7---7--|
G|-----7-----7-----7-----7---7---7|-----7-----7-----7-----7---7---7|
D|--------------------------------|--------------------------------|
A|--------------------------------|--------------------------------|
D|--------------------------------|--------------------------------|
 PM-------------------------------|PM------------------------------|
  Guitar 1
e|--------------------------------|
B|--------------------------------|
G|13131313131313131111111111111111|
D|--------------------------------|
A|--------------------------------|
D|--------------------------------|
 |
 |Guitar 2
e|-7~-----------------------------|
B|--------------------------------|
G|--------------------------------|
D|--------------------------------|
A|--------------------------------|
D|--------------------------------|

BRIDGE: (played clean)
  Guitar 1
e|--------------------------------|--------------------------------|
B|--------------------------------|--------------------------------|
G|--------------------------------|--------------------------------|
D|--------------------------------|--------------------------------|
A|--------------------------------|--------------------------------|
D|--------------------------------|--------------------------------|
 |
 |Guitar 2
e|-----------8-----6-------911-9-8|(8)-------11-9-8---------6------|
B|-----8h9-----9-8---8h9----------|-----8h9---------9---8h9---9-8-6|
G|-6------------------------------|--------------------------------|
D|--------------------------------|--------------------------------|
A|--------------------------------|--------------------------------|
D|--------------------------------|--------------------------------|

  Guitar 1
e|--------------------------------|--------------------------------|
B|--------------------------------|--------------------------------|
G|--------------------------------|--------------------------------|
D|--------------------------------|--------------------------------|
A|--------------------------------|--------------------------------|
D|--------------------------------|--------------------------------|
 |
 |Guitar 2
e|-----------911-9-8------11-9-8--|-----------6--------------------|
B|(6)--8h9-----------8h9---------9|(9)--8h9-----9-8-6---8h9-6-9-8--|
G|--------------------------------|-------------------------------8|
D|--------------------------------|--------------------------------|
A|--------------------------------|--------------------------------|
D|--------------------------------|--------------------------------|

  Guitar 1
e|--------------------------------|--------------------------------|
B|--------------------------------|--------------------------------|
G|--------------------------------|--------------------------------|
D|-----------6-6-6----------101010|-----------6-6-6-----------8-8-8|
A|-----------4-4-4-----------8-8-8|-----------4-4-4-----------6-6-6|
D|--------------------------------|--------------------------------|
 |
 |Guitar 2
e|--------------------------------|--------------------------------|
B|--------------------------------|--------------------------------|
G|(8)--------------8--------------|-8-----------------8------------|
D|-----6h8-------------6h8h6------|-----6h8h6-------------6h8------|
A|-----------4-4-4-----------8-8-8|-----------4-4-4-----------6-6-6|
D|--------------------------------|--------------------------------|

  Guitar 1
e|--------------------------------|--------------------------------|
B|--------------------------------|--------------------------------|
G|--------------------------------|--------------------------------|
D|-----------6-6-6----------101010|-----------6-6-6-----------8-8-8|
A|-----------4-4-4-----------8-8-8|-----------4-4-4-----------6-6-6|
D|--------------------------------|--------------------------------|
 |
 |Guitar 2
e|--------------------------------|--------------------------------|
B|--------------------------------|--------------------------------|
G|-8---------------8--------------|-8-----------------8------------|
D|-----6h8-------------6h8h6------|-----6h8h6-------------6h8------|
A|-----------4-4-4-----------8-8-8|-----------4-4-4-----------6-6-6|
D|--------------------------------|--------------------------------|

PRECHORUS 3:
  Guitar 1
e|--------------------------------|--------------------------------|
B|--------------------------------|--------------------------------|
G|--------------------------------|--------------------------------|
D|-6-6----------------------------|-6-6----------------------------|
A|-4-4---9-9---7-7---5-5---5-5-5-5|-4-4---9-9---7-7---5-5---7-7-7-7|
D|-------9-9---7-7---5-5---5-5-5-5|-------9-9---7-7---5-5---7-7-7-7|
 |
 |Guitar 2
e|--------------------------------|--------------------------------|
B|--------------------------------|--------------------------------|
G|--------------------------------|--------------------------------|
D|-4~-----------------------------|--------------------------------|
A|-4~-----------------------------|--------------------------------|
D|-4~-----------------------------|--------------------------------|

  Guitar 1
e|--------------------------------|--------------------------------|
B|--------------------------------|------------------1010~---------|
G|--------------------------------|-------------------x-x----------|
D|-6-6----------------------------|-6-6---------------7-7~---------|
A|-4-4---9-9---7-7---5-5---5-5-5-5|-4-4---9-9---7-7----------------|
D|-------9-9---7-7---5-5---5-5-5-5|-------9-9---7-7----------------|
 |
 |Guitar 2
e|--------------------------------|--------------------------------|
B|--------------------------------|--------------------------------|
G|--------------------------------|--------------------------------|
D|-4~-----------------------------|--------------------------------|
A|-4~-----------------------------|--------------------------------|
D|-4~-----------------------------|--------------------------------|

FINAL CHORUS PART I:
  Guitar 1
e|--------------------------------|--------------------------------|
B|--------------------------------|--------------------------------|
G|--------------------------------|-4-4-4-4-4-4-4-4----------------|
D|-4-4-4-4-4-4-4-4-2-2-2-2-2-2-2-2|-2-2-2-2-2-2-2-2----------------|
A|-2-2-2-2-2-2-2-2-0-0-0-0-0-0-0-0|-----------------4-4-4-4-4-4-4-4|
D|--------------------------------|-----------------4-4-4-4-4-4-4-4|
 |
 |Guitar 2
e|--------------------------------|--------------------------------|
B|--------------------------------|--------------------------------|
G|-9-9-9-9-9-9-9-9----------------|1111111111111111-8-8-8-8-8-8-8-8|
D|-x-x-x-x-x-x-x-x-9-9-9-9-9-9-9-9|-x-x-x-x-x-x-x-x-x-x-x-x-x-x-x-x|
A|-7-7-7-7-7-7-7-7-x-x-x-x-x-x-x-x|-9-9-9-9-9-9-9-9-6-6-6-6-6-6-6-6|
D|-----------------9-9-9-9-9-9-9-9|--------------------------------|

  Guitar 1
e|--------------------------------|--------------------------------|
B|--------------------------------|--------------------------------|
G|--------------------------------|-4-4-4-4-4-4-4-4-2-2-2-2-2-2-2-2|
D|-4-4-4-4-4-4-4-4-2-2-2-2-2-2-2-2|-2-2-2-2-2-2-2-2-0-0-0-0-0-0-0-0|
A|-2-2-2-2-2-2-2-2-0-0-0-0-0-0-0-0|--------------------------------|
D|--------------------------------|--------------------------------|
 |
 |Guitar 2
e|--------------------------------|--------------------------------|
B|--------------------------------|--------------------------------|
G|-9-9-9-9-9-9-9-9----------------|11111111111111111313131313131313|
D|-x-x-x-x-x-x-x-x-9-9-9-9-9-9-9-9|-x-x-x-x-x-x-x-x-x-x-x-x-x-x-x-x|
A|-7-7-7-7-7-7-7-7-x-x-x-x-x-x-x-x|-9-9-9-9-9-9-9-91111111111111111|
D|-----------------9-9-9-9-9-9-9-9|--------------------------------|

  Guitar 1
e|--------------------------------|--------------------------------|
B|--------------------------------|--------------------------------|
G|--------------------------------|-4-4-4-4-4-4-4-4----------------|
D|-4-4-4-4-4-4-4-4-2-2-2-2-2-2-2-2|-2-2-2-2-2-2-2-2----------------|
A|-2-2-2-2-2-2-2-2-0-0-0-0-0-0-0-0|-----------------4-4-4-4-4-4-4-4|
D|--------------------------------|-----------------4-4-4-4-4-4-4-4|
 |
 |Guitar 2
e|--------------------------------|--------------------------------|
B|--------------------------------|--------------------------------|
G|-9-9-9-9-9-9-9-9----------------|1111111111111111-8-8-8-8-8-8-8-8|
D|-x-x-x-x-x-x-x-x-9-9-9-9-9-9-9-9|-x-x-x-x-x-x-x-x-x-x-x-x-x-x-x-x|
A|-7-7-7-7-7-7-7-7-x-x-x-x-x-x-x-x|-9-9-9-9-9-9-9-9-6-6-6-6-6-6-6-6|
D|-----------------9-9-9-9-9-9-9-9|--------------------------------|

  Guitar 1
e|--------------------------------|--------------------------------|
B|--------------------------------|--------------------------------|
G|--------------------------------|-4-4-4-4-4-4-4-4-2-2-2-2-2-2-2-2|
D|-4-4-4-4-4-4-4-4-2-2-2-2-2-2-2-2|-2-2-2-2-2-2-2-2-0-0-0-0-0-0-0-0|
A|-2-2-2-2-2-2-2-2-0-0-0-0-0-0-0-0|--------------------------------|
D|--------------------------------|--------------------------------|
 |
 |Guitar 2
e|--------------------------------|--------------------------------|
B|--------------------------------|--------------------------------|
G|-9-9-9-9-9-9-9-9----------------|11111111111111111313131313131313|
D|-x-x-x-x-x-x-x-x-9-9-9-9-9-9-9-9|-x-x-x-x-x-x-x-x-x-x-x-x-x-x-x-x|
A|-7-7-7-7-7-7-7-7-x-x-x-x-x-x-x-x|-9-9-9-9-9-9-9-91111111111111111|
D|-----------------9-9-9-9-9-9-9-9|--------------------------------|

FINAL CHORUS PART II:
  Guitar 1
e|--------------------------------|--------------------------------|
B|--------------------------------|--------------------------------|
G|--------------------------------|-----------------2-2-2-2-2-2-2-2|
D|-2-2-2-2-2-2-2-2-0-0-0-0-0-0-0-0|-4-4-4-4-4-4-4-4----------------|
A|--------------------------------|--------------------------------|
D|--------------------------------|--------------------------------|
 |PM------------------------------|PM------------------------------|
 |Guitar 2
e|-7-----7-----7-----7------------|-7-----7-----7-----7------------|
B|---7-----7-----7-----7---7---7--|---7-----7-----7-----7---7---7--|
G|-----7-----7-----7-----7---7---7|-----7-----7-----7-----7---7---7|
D|--------------------------------|--------------------------------|
A|--------------------------------|--------------------------------|
D|--------------------------------|--------------------------------|
 PM-------------------------------|PM------------------------------|
  Guitar 1
e|--------------------------------|--------------------------------|
B|--------------------------------|--------------------------------|
G|--------------------------------|--------------------------------|
D|-2-2-2-2-2-2-2-2-0-0-0-0-0-0-0-0|-4-4-4-4-4-4-4-4-5-5-5-5-5-5-5-5|
A|--------------------------------|--------------------------------|
D|--------------------------------|--------------------------------|
 |PM------------------------------|PM------------------------------|
 |Guitar 2
e|-7-----7-----7-----7------------|-7-----7-----7-----7------------|
B|---7-----7-----7-----7---7---7--|---7-----7-----7-----7---7---7--|
G|-----7-----7-----7-----7---7---7|-----7-----7-----7-----7---7---7|
D|--------------------------------|--------------------------------|
A|--------------------------------|--------------------------------|
D|--------------------------------|--------------------------------|
 PM-------------------------------|PM------------------------------|
  Guitar 1
e|--------------------------------|--------------------------------|
B|--------------------------------|--------------------------------|
G|--------------------------------|-----------------2-2-2-2-2-2-2-2|
D|-2-2-2-2-2-2-2-2-0-0-0-0-0-0-0-0|-4-4-4-4-4-4-4-4----------------|
A|--------------------------------|--------------------------------|
D|--------------------------------|--------------------------------|
 |PM------------------------------|PM------------------------------|
 |Guitar 2
e|-7-----7-----7-----7------------|-7-----7-----7-----7------------|
B|---7-----7-----7-----7---7---7--|---7-----7-----7-----7---7---7--|
G|-----7-----7-----7-----7---7---7|-----7-----7-----7-----7---7---7|
D|--------------------------------|--------------------------------|
A|--------------------------------|--------------------------------|
D|--------------------------------|--------------------------------|
 PM-------------------------------|PM------------------------------|
  Guitar 1
e|--------------------------------|--------------------------------|
B|--------------------------------|--------------------------------|
G|--------------------------------|13131313131313131111111111111111|
D|-2-2-2-2-2-2-2-2-0-0-0-0-0-0-0-0|--------------------------------|
A|--------------------------------|--------------------------------|
D|--------------------------------|--------------------------------|
 |PM------------------------------|PM------------------------------|
 |Guitar 2
e|-7-----7-----7-----7------------|-7-----7-----7-----7------------|
B|---7-----7-----7-----7---7---7--|---7-----7-----7-----7---7---7--|
G|-----7-----7-----7-----7---7---7|-----7-----7-----7-----7---7---7|
D|--------------------------------|--------------------------------|
A|--------------------------------|--------------------------------|
D|--------------------------------|--------------------------------|
 PM----------------------------------------------------------------|
  Guitar 1
e|--------------------------------|
B|--------------------------------|
G|13131313131313131111111111111111|
D|--------------------------------|
A|--------------------------------|
D|--------------------------------|
 |
 |Guitar 2
e|-7~-----------------------------|
B|--------------------------------|
G|--------------------------------|
D|--------------------------------|
A|--------------------------------|
D|--------------------------------|

OUTRO:
  Guitar 1
e|--------------------------------|--------------------------------|
B|--------------------------------|--------------------------------|
G|--------------------------------|--------------------------------|
D|-6-6----------------------------|-6-6----------------------------|
A|-4-4---9-9---7-7---5-5---5-5-5-5|-4-4---9-9---7-7---5-5---7-7-7-7|
D|-------9-9---7-7---5-5---5-5-5-5|-------9-9---7-7---5-5---7-7-7-7|
 |
 |Guitar 2
e|--------------------------------|--------------------------------|
B|--------------------------------|--------------------------------|
G|--------------------------------|--------------------------------|
D|-4~-----------------------------|--------------------------------|
A|-4~-----------------------------|--------------------------------|
D|-4~-----------------------------|--------------------------------|

  Guitar 1
e|--------------------------------|--------------------------------|
B|--------------------------------|--------------------------------|
G|--------------------------------|--------------------------------|
D|-6-6----------------------------|-6-6----------------------------|
A|-4-4---9-9---7-7---5-5---5-5-5-5|-4-4---9-9---7-7---5-5~---------|
D|-------9-9---7-7---5-5---5-5-5-5|-------9-9---7-7---5-5~---------|
 |
 |Guitar 2
e|--------------------------------|--------------------------------|
B|--------------------------------|--------------------------------|
G|--------------------------------|--------------------------------|
D|-4~-----------------------------|--------------------------------|
A|-4~-----------------------------|--------------------------------|
D|-4~-----------------------------|--------------------------------|

                                 END

LYRICS (arranged into bars that match the length of the guitar bars)

 INTRO PART I: (all instrumental)
 INTRO PART II/CHORUS 1:
| Hidden from the truth... | The only masochists are the honest |
Hidden from the truth... | Where every word's a broken promise |
Hidden from the truth... | ...    |
Hidden from the truth... | ...    |
 VERSE 1:
Another poison sunrise | scars Utopian skies |
Remove the veil to see | everything's not as it seems |
The twisted reality | A fracture parting the seas |
Fires riots and rebels | We can just hide from it all |
 PRECHORUS 1/INTERLUDE: (all instrumental)
 VERSE 2:
| It's far too late to rebuild | Our heroes strung up and killed |
Nobody wants the credit | so we can't find the culprit |
Where are the guardian angels | who watched our rise and our fall? |
No sense of security | but ignorance is safety |
 PRECHORUS 2: (all instrumental)
 Chorus 2 PART I:
| Hidden from the truth... | the only masochists are the honest |
Hidden from the truth... | where every word's a broken promise |
 CHORUS 2 PART II:
We don't face the consequences | We just shut out all our senses |
But they slipped past our defenses | and we see reality through gaps 
in fences |        |
BRIDGE: (all instrumental)
FINAL PRECHORUS: (all instrumental)
FINAL CHORUS PART I:
| Hidden from the truth... | ...    |
Hidden from the truth... | ...    |
Hidden from the truth... | The only masochists are the honest |
Hidden from the truth... | Where every word's a broken promise |
FINAL CHORUS PART II:
We don't face the consequences | We just shut out all our senses |
But they slipped past our defenses | and we see reality through gaps
in fences |We don't face the consequences | We just shut out all our senses |
But they slipped past our defenses | and we see reality through gaps
in fences |        |
OUTRO:
So take me | and hide me away | So take me... | ...    |

                                 END

Low Altitude Sickness is: Bass - Morgan
                          Guitar - Henry
                          Drums - Charles



************************************

| /   slide up
| \   slide down
| h   hammer-on
| p   pull-off
| ~   vibrato
| +   harmonic
| x   Mute note
| b   Bend
| pb  Pre-bend
| br  Bend release
| pbr Pre-bend release
| brb Bend release bend

************************************
Tap to rate this tab
 
# A B C D E F G H I J K L M N O P Q R S T U V W X Y Z