Song name
# A B C D E F G H I J K L M N O P Q R S T U V W X Y Z

Misc Unsigned Bands - Rlntlss - Delirious tab

This is a acoustic played by Jacob G. Lee until Aaron Dawson gradually brings in 
the drums. :D :D :D

Impossibly wrong because i actually wrote the song!

Capo 3rd fret

Standard tuning with capo

Intro 

E|--------3----------------3----------------3----------------2---2--3--|
B|----------3----------------3----------------3----------3-------------|
G|------------0----------------0--------0-------0------2---2---2-------|
D|-----0--------0------0---------0----2---2-------2--0-----------------|
A|---2---2-----------2---2----------3----------------------------------|
E|-3---------------0---------------------------------------------------|

This repeats until chorus which is:

E|--3-3-3-3-3--|--3-3-3-3-3--|--3-3-3-3-3--|--2-2-2-2-2-3--| 
B|--3-3-3-3-3--|--3-3-3-3-3--|--3-3-3-3-3--|--3-3-3-3-3-3--|
G|--0-0-0-0-0--|--0-0-0-0-0--|--0-0-0-0-0--|--2-2-2-2-2-2--|
D|--0-0-0-0-0--|--2-2-2-2-2--|--2-2-2-2-2--|--0-0-0-0-0-0--|
A|--2-2-2-2-2--|--2-2-2-2-2--|--3-3-3-3-3--|---------------|
E|--3-3-3-3-3--|--0-0-0-0-0--|-------------|---------------|

This repeats until Outro which is:

Outro
E|--------3----------------3----------------3----------------2---2--3--3-3-|
B|----------3----------------3----------------3----------3-------------3-3-|
G|------------0----------------0--------0-------0------2---2---2-------0-0-|
D|-----0--------0------0---------0----2---2-------2--0-----------------0-0-|
A|---2---2-----------2---2----------3----------------------------------2-2-|
E|-3---------------0---------------------------------------------------3-3-|

Impossibly wrong because i actually wrote the song!
Tap to rate this tab
# A B C D E F G H I J K L M N O P Q R S T U V W X Y Z