Song name
# A B C D E F G H I J K L M N O P Q R S T U V W X Y Z

Misc Unsigned Bands - Jake Lauer - Why Oh Why tab

-------------------------------------------------------------------------------
			     Why, Oh Why - Jake Lauer (http://jakelauer.bandcamp.com)
-------------------------------------------------------------------------------
Tabbed by: Jake Lauer
Email:

Tuning: EADGBE


Intro Guitar 1:

e|-------------------------------------------------------------------------------------|
B|------------------------10------------------12---------------------10----------------|
G|---------7-9-------9/11----11-9-7------9/11-----11\9\7-9------9/11----11\9\7-77777---|
D|---7-9-------------------------------------------------------------------------------|
A|-------------------------------------------------------------------------------------|
E|-------------------------------------------------------------------------------------|

Intro Guitar 2: Eb - A - D - Bb - Eb - A - D

Verses:

Bb               A
Hey, when did it get so late?

           D              A    Bb
I think my watch stopped, around 7 or 8 or

Eb         D  A                         Bb G A
9 years ago,  I guess I'll set it again



         Bb                    A
How many ghost sandcastles did my mind make

           D           A           Bb
before the rising tide washed them all away?

         Eb              D      A
Now I've got sandy feet, and an air of defeat,

         Bb           G           A
But it's time for the socks to go on.



Chorus:

Eb-A-D       Bb            Eb        A   D
Goodbye, I'd take an empty mind some nights.

Eb   A  D       Bb           Eb     A       D
Why, oh why'd I turn a blind eye on keeping time?




Bridge (repeat 12x)
e|------2-----2-----2------2-----9-------7--------|
B|------3-----3-----3------3-----10------8--------|
G|----2-----2-----2------2-----2/9-----7----------|
D|------------------------------------------------|
A|------------------------------------------------|
E|------------------------------------------------|

Chorus repeat x2

************************************

| /   slide up
| \   slide down
| h   hammer-on
| p   pull-off
| ~   vibrato
| +   harmonic
| x   Mute note
| b   Bend
| pb  Pre-bend
| br  Bend release
| pbr Pre-bend release
| brb Bend release bend

************************************
Tap to rate this tab
 
# A B C D E F G H I J K L M N O P Q R S T U V W X Y Z