Song name
# A B C D E F G H I J K L M N O P Q R S T U V W X Y Z

Misc Unsigned Bands - Takeback - Takeback tab

(Link to Takeback- http://www.takebackband.webs.com/ )

-BEGIN-INTRO-1- (PLAY 2X)
guitar 1
x------------------------|
x------------------------|
x------------------------|
x----7---7---7h8-5-------|
x-00--00--00-------7-----|
x------------------------|

guitar 2
x----------------------------|
x----------------------------|
x----------------------------|
x-------2222-----------------|
x-222200002222--4--4---------|
x-0000-----0000---2--2-------|
-END-INTRO-1-

-BEGIN-INTRO-2- (PLAY 2X)
guitar 1
x-------------------|
x-------------------|
x----------------7--|
x----7--7---7h8-5---|
x-00-00-00----------|
x-------------------|

guitar 2
x--------------------|
x--------------------|
x--------------------|
x--------------------|
x------2222-----4--4-|
x-0000-----00002--2--|
-END-INTRO-2-

Chorus (PLAY 4X)

x--------------------------|
x--------------------------|
x-----7-7----------5-------|
x-----7-7--7-7----5--5-----|
x-----5-5--7-7----3--5-----|
x-5555-5--555-5-----3------|

(INTRO 1 & 2 - 2X)
(CHORUS - 2X)

OUTRO - 1X

x----------------------|
x----------------------|
x----------------------|
x----------------------|
x-2-2-4-4-4-4-321------|
x-0-0-2-2-4-4-----2----|
Tap to rate this tab
# A B C D E F G H I J K L M N O P Q R S T U V W X Y Z