Song name
# A B C D E F G H I J K L M N O P Q R S T U V W X Y Z

Misc Unsigned Bands - Low Altitude Sickness - 27 Letters tab

-------------------------------------------------------------------------------
			     27 LETTERS - Low Altitude Sickness
-------------------------------------------------------------------------------
Guitar Written & Tabbed by: Henry
Lyrics Written by: Henry
Email: smallandmighty@live.co.uk

Tuning: Drop D (DADGBe)

Played clean, with reverb

Lyrics included at the bottom of the page :)


INTRO PART I: No guitar, OMG!!!


INTRO PART II:
e|--------------------------------|--------------------------------|
B|--------------------------------|--------------------------------|
G|--------------------------------|--------------------------------|
D|-4-------4-4-4-4-2-------2-2-2-2|-4-------4-4-4-4-0-------0-0-0-0|
A|-0-------0-0-0-0-0-------0-0-0-0|-2-------2-2-2-2-0-------0-0-0-0|
D|-0-------0-0-0-0-0-------0-0-0-0|-0-------0-0-0-0-0-------0-0-0-0|


e|--------------------------------|--------------------------------|
B|--------------------------------|--------------------------------|
G|--------------------------------|--------------------------------|
D|-4-------4-4-4-4-2-------2-2-2-2|-4-------4-4-4-4-0-------0-0-0-0|
A|-0-------0-0-0-0-0-------0-0-0-0|-2-------2-2-2-2-0-------0-0-0-0|
D|-0-------0-0-0-0-0-------0-0-0-0|-0-------0-0-0-0-0-------0-0-0-0|


VERSE 1:
e|--------------------------------|--------------------------------|
B|--------------------------------|--------------------------------|
G|--------------------------------|--------------------------------|
D|-4-------4-4-4-4-2-------2-2-2-2|-4-------4-4-4-4-0-------0-0-0-0|
A|-0-------0-0-0-0-0-------0-0-0-0|-2-------2-2-2-2-0-------0-0-0-0|
D|-0-------0-0-0-0-0-------0-0-0-0|-0-------0-0-0-0-0-------0-0-0-0|


e|--------------------------------|--------------------------------|
B|--------------------------------|--------------------------------|
G|--------------------------------|--------------------------------|
D|-4-------4-4-4-4-2-------2-2-2-2|-4-------4-4-4-4-0-------0-0-0-0|
A|-0-------0-0-0-0-0-------0-0-0-0|-2-------2-2-2-2-0-------0-0-0-0|
D|-0-------0-0-0-0-0-------0-0-0-0|-0-------0-0-0-0-0-------0-0-0-0|


e|--------------------------------|--------------------------------|
B|--------------------------------|--------------------------------|
G|-4-------4-4-4-4-2-------2-2-2-2|-4-------4-4-4-4-2-------2-2-2-2|
D|-4-------4-4-4-4-2-------2-2-2-2|-4-------4-4-4-4-0-------0-0-0-0|
A|-0-------0-0-0-0-0-------0-0-0-0|-2-------2-2-2-2-0-------0-0-0-0|
D|-0-------0-0-0-0-0-------0-0-0-0|-0-------0-0-0-0-0-------0-0-0-0|


e|--------------------------------|--------------------------------|
B|--------------------------------|--------------------------------|
G|-4-------4-4-4-4-2-------2-2-2-2|-4-------4-4-4-4-2-------2-2-2-2|
D|-4-------4-4-4-4-2-------2-2-2-2|-4-------4-4-4-4-0-------0-0-0-0|
A|-0-------0-0-0-0-0-------0-0-0-0|-2-------2-2-2-2-0-------0-0-0-0|
D|-0-------0-0-0-0-0-------0-0-0-0|-0-------0-0-0-0-0-------0-0-0-0|


PRECHORUS 1:
e|--------------------------------|--------------------------------|
B|--------------------------------|-0---------------0--------------|
G|-4-------4-4-4-4-2-------2-2-2-2|-2-------2-2-2-2-2-------2-2-2-2|
D|-4-------4-4-4-4-2-------2-2-2-2|-4-------4-4-4-4-4-------4-4-4-4|
A|-0-------0-0-0-0-0-------0-0-0-0|-0-------0-0-0-0-0-------0-0-0-0|
D|-0-------0-0-0-0-0-------0-0-0-0|-0-------0-0-0-0-0-------0-0-0-0|


CHORUS 1:
e|-------------0---------------0--|-------------0---------------0--|
B|-0---0-0---0-0---0---0-0---0-0--|-0---0-0---0-0---0---0-0---0-0--|
G|-2---2-2---2-2---2---2-2---2-2--|-2---2-2---2-2---2---2-2---2-2--|
D|-4---4-------4---4---4-------4--|-0---0-------0---0---0-------0--|
A|--------------------------------|--------------------------------|
D|--------------------------------|--------------------------------|
   v   v ^   ^ v   v   v ^   ^ v    v   v ^   ^ v   v   v ^   ^ v

e|-------------0---------------0--|-------------0---------------0--|
B|-0---0-0---0-0---0---0-0---0-0--|-0---0-0---0-0---0---0-0---0-0--|
G|-2---2-2---2-2---2---2-2---2-2--|-4---4-4---4-4---4---4-4---4-4--|
D|-2---2-------2---2---2-------2--|-4---4-------4---4---4-------4--|
A|--------------------------------|--------------------------------|
D|--------------------------------|--------------------------------|
   v   v ^   ^ v   v   v ^   ^ v    v   v ^   ^ v   v   v ^   ^ v

e|-------------0---------------0--|-------------0---------------0--|
B|-0---0-0---0-0---0---0-0---0-0--|-0---0-0---0-0---0---0-0---0-0--|
G|-2---2-2---2-2---2---2-2---2-2--|-2---2-2---2-2---2---2-2---2-2--|
D|-4---4-------4---4---4-------4--|-0---0-------0---0---0-------0--|
A|--------------------------------|--------------------------------|
D|--------------------------------|--------------------------------|
   v   v ^   ^ v   v   v ^   ^ v    v   v ^   ^ v   v   v ^   ^ v

e|-------------0---------------0--|-------------0---------------0--|
B|-0---0-0---0-0---0---0-0---0-0--|-0---0-0---0-0---0---0-0---0-0--|
G|-2---2-2---2-2---2---2-2---2-2--|-6---6-6---6-6---4---4-4---4-4--|
D|-2---2-------2---2---2-------2--|-6---6-------6---4---4-------4--|
A|--------------------------------|--------------------------------|
D|--------------------------------|--------------------------------|
   v   v ^   ^ v   v   v ^   ^ v    v   v ^   ^ v   v   v ^   ^ v

PREVERSE:

e|--------------------------------|--------------------------------|
B|--------------------------------|--------------------------------|
G|--------------------------------|--------------------------------|
D|-4-------4-4-4-4-2-------2-2-2-2|-4-------4-4-4-4-0-------0-0-0-0|
A|-0-------0-0-0-0-0-------0-0-0-0|-2-------2-2-2-2-0-------0-0-0-0|
D|-0-------0-0-0-0-0-------0-0-0-0|-0-------0-0-0-0-0-------0-0-0-0|


e|--------------------------------|--------------------------------|
B|--------------------------------|--------------------------------|
G|--------------------------------|--------------------------------|
D|-4-------4-4-4-4-2-------2-2-2-2|-4-------4-4-4-4-0-------0-0-0-0|
A|-0-------0-0-0-0-0-------0-0-0-0|-2-------2-2-2-2-0-------0-0-0-0|
D|-0-------0-0-0-0-0-------0-0-0-0|-0-------0-0-0-0-0-------0-0-0-0|

VERSE 2:

e|--------------------------------|--------------------------------|
B|--------------------------------|--------------------------------|
G|--------------------------------|--------------------------------|
D|-4-------4-4-4-4-2-------2-2-2-2|-4-------4-4-4-4-0-------0-0-0-0|
A|-0-------0-0-0-0-0-------0-0-0-0|-2-------2-2-2-2-0-------0-0-0-0|
D|-0-------0-0-0-0-0-------0-0-0-0|-0-------0-0-0-0-0-------0-0-0-0|


e|--------------------------------|--------------------------------|
B|--------------------------------|--------------------------------|
G|--------------------------------|--------------------------------|
D|-4-------4-4-4-4-2-------2-2-2-2|-4-------4-4-4-4-0-------0-0-0-0|
A|-0-------0-0-0-0-0-------0-0-0-0|-2-------2-2-2-2-0-------0-0-0-0|
D|-0-------0-0-0-0-0-------0-0-0-0|-0-------0-0-0-0-0-------0-0-0-0|

PRECHORUS 2:

e|--------------------------------|--------------------------------|
B|--------------------------------|-0---------------0--------------|
G|-4-------4-4-4-4-2-------2-2-2-2|-2-------2-2-2-2-2-------2-2-2-2|
D|-4-------4-4-4-4-2-------2-2-2-2|-4-------4-4-4-4-4-------4-4-4-4|
A|-0-------0-0-0-0-0-------0-0-0-0|-0-------0-0-0-0-0-------0-0-0-0|
D|-0-------0-0-0-0-0-------0-0-0-0|-0-------0-0-0-0-0-------0-0-0-0|

CHORUS 2:

e|-------------0---------------0--|-------------0---------------0--|
B|-0---0-0---0-0---0---0-0---0-0--|-0---0-0---0-0---0---0-0---0-0--|
G|-2---2-2---2-2---2---2-2---2-2--|-2---2-2---2-2---2---2-2---2-2--|
D|-4---4-------4---4---4-------4--|-0---0-------0---0---0-------0--|
A|--------------------------------|--------------------------------|
D|--------------------------------|--------------------------------|
   v   v ^   ^ v   v   v ^   ^ v    v   v ^   ^ v   v   v ^   ^ v

e|-------------0---------------0--|-------------0---------------0--|
B|-0---0-0---0-0---0---0-0---0-0--|-0---0-0---0-0---0---0-0---0-0--|
G|-2---2-2---2-2---2---2-2---2-2--|-4---4-4---4-4---4---4-4---4-4--|
D|-2---2-------2---2---2-------2--|-4---4-------4---4---4-------4--|
A|--------------------------------|--------------------------------|
D|--------------------------------|--------------------------------|
   v   v ^   ^ v   v   v ^   ^ v    v   v ^   ^ v   v   v ^   ^ v

e|-------------0---------------0--|-------------0---------------0--|
B|-0---0-0---0-0---0---0-0---0-0--|-0---0-0---0-0---0---0-0---0-0--|
G|-2---2-2---2-2---2---2-2---2-2--|-2---2-2---2-2---2---2-2---2-2--|
D|-4---4-------4---4---4-------4--|-0---0-------0---0---0-------0--|
A|--------------------------------|--------------------------------|
D|--------------------------------|--------------------------------|
   v   v ^   ^ v   v   v ^   ^ v    v   v ^   ^ v   v   v ^   ^ v

e|-------------0---------------0--|-------------0---------------0--|
B|-0---0-0---0-0---0---0-0---0-0--|-0---0-0---0-0---0---0-0---0-0--|
G|-2---2-2---2-2---2---2-2---2-2--|-6---6-6---6-6---4---4-4---4-4--|
D|-2---2-------2---2---2-------2--|-6---6-------6---4---4-------4--|
A|--------------------------------|--------------------------------|
D|--------------------------------|--------------------------------|
   v   v ^   ^ v   v   v ^   ^ v    v   v ^   ^ v   v   v ^   ^ v

BRIDGE/OUTRO PART I:

e|--------------------------------|--------------------------------|
B|--------------------------------|-5---5-5---5-5---5---5-5---5-5--|
G|-6---6-6---6-6---6---6-6---6-6--|-x---x-x---x-x---x---x-x---x-x--|
D|-x---x-x---x-x---x---x-x---x-x--|-2---2-2---2-2---2---2-2---2-2--|
A|-4---4-4---4-4---4---4-4---4-4--|--------------------------------|
D|--------------------------------|--------------------------------|


e|--------------------------------|--------------------------------|
B|--------------------------------|--------------------------------|
G|-6---6-6---6-6---6---6-6---6-6--|-4---4-4---4-4---4---4-4---4-4--|
D|-x---x-x---x-x---x---x-x---x-x--|-x---x-x---x-x---x---x-x---x-x--|
A|-4---4-4---4-4---4---4-4---4-4--|-2---2-2---2-2---2---2-2---2-2--|
D|--------------------------------|--------------------------------|


e|--------------------------------|--------------------------------|
B|--------------------------------|-5---5-5---5-5---5---5-5---5-5--|
G|-6---6-6---6-6---6---6-6---6-6--|-x---x-x---x-x---x---x-x---x-x--|
D|-x---x-x---x-x---x---x-x---x-x--|-2---2-2---2-2---2---2-2---2-2--|
A|-4---4-4---4-4---4---4-4---4-4--|--------------------------------|
D|--------------------------------|--------------------------------|


e|--------------------------------|--------------------------------|
B|--------------------------------|--------------------------------|
G|-6---6-6---6-6---6---6-6---6-6--|-4---4-4---4-4---4---4-4---4-4--|
D|-x---x-x---x-x---x---x-x---x-x--|-x---x-x---x-x---x---x-x---x-x--|
A|-4---4-4---4-4---4---4-4---4-4--|-2---2-2---2-2---2---2-2---2-2--|
D|--------------------------------|--------------------------------|


OUTRO PART II:
e|--------------------------------|--------------------------------|
B|--------------------------------|--------------------------------|
G|-6-------6-6-6-6-4-------4-4-4-4|-6-------6-6-6-6-4-------2-2-2-2|
D|-x-------x-x-x-x-x-------x-x-x-x|-x-------x-x-x-x-x-------x-x-x-x|
A|-4-------4-4-4-4-2-------2-2-2-2|-4-------4-4-4-4-0-------0-0-0-0|
D|--------------------------------|--------------------------------|


e|--------------------------------|--------------------------------|
B|--------------------------------|--------------------------------|
G|-6-------6-6-6-6-2-------4-4-4-4|-7-7-7-7-6-6-6-6-4-4-4-4-2-2-2-2|
D|-x-------x-x-x-x-x-------x-x-x-x|-x-x-x-x-x-x-x-x-x-x-x-x-x-x-x-x|
A|-4-------4-4-4-4-0-------0-0-0-0|-0-0-0-0-0-0-0-0-0-0-0-0-0-0-0-0|
D|--------------------------------|--------------------------------|


e|--------------------------------|--------------------------------|
B|--------------------------------|--------------------------------|
G|-6-------6-6-6-6-4-------4-4-4-4|-6-------6-6-6-6-4-------2-2-2-2|
D|-x-------x-x-x-x-x-------x-x-x-x|-x-------x-x-x-x-x-------x-x-x-x|
A|-4-------4-4-4-4-2-------2-2-2-2|-4-------4-4-4-4-0-------0-0-0-0|
D|--------------------------------|--------------------------------|


e|--------------------------------|--------------------------------|
B|--------------------------------|--------------------------------|
G|-6-------6-6-6-6-2-------4-4-4-4|-7-7-7-7-6-6-6-6-4-4-4-4-2-2-2-2|
D|-x-------x-x-x-x-x-------x-x-x-x|-x-x-x-x-x-x-x-x-x-x-x-x-x-x-x-x|
A|-4-------4-4-4-4-0-------0-0-0-0|-0-0-0-0-0-0-0-0-0-0-0-0-0-0-0-0|
D|--------------------------------|--------------------------------|

OUTRO PART III: No guitar again, ZOMG!!!

                                 END


LYRICS: (Separated into bars that match the length of the Guitar bars, 
          empty bars are instrumental)

INTRO PART I:|        |        | I'll put it down on paper, coz I can't
 say it out loud | but I'll write my words with such volume that you
 can't shut them out |
INTRO PART II: (all instrumental)
VERSE 1: | I'd put it down on paper, but I don't know the words |
 coz everything about me fails, and I feel so much worse |
 I could lay here forever, with my head against the dirt |
 but locked outside your front door is the worst place in the world |
 coz it means that you've forgotten, or that you've just moved on |
 I'm wishing I was asked inside, but it seems those days have gone |
 you said there's nothing I could have done, and nothing I did wrong |
 and that you won't write me a poem or some broken-hearted song |
PRECHORUS 1: (all instrumental)
CHORUS 1: | Please take my everything | Please take my all of this |
 Please take anything left | I have no use for it |
 Please take my everything | Please take my all of this |
 and anything that sparked | your limited interest |
PREVERSE: (all instrumental)
VERSE 2: | I'd put it down on paper, but the pen falls from my hand |
 this is the way that no one wanted, this is the way that no one planned |
 I could lay here forever, with my head buried in sand |
 without the energy to speak, let alone to stand |
PRECHORUS 2: (all instrumental)
CHORUS 2: | Please take my everything | Please take my all of this |
 Please take anything left | I have no use for it |
 Please take my everything | Please take my all of this |
 and anything that sparked | your limited interest |
BRIDGE/OUTRO PART I: I hate to be the one to | tell you, you're not worth
 all this | I hate to be the one to | break it to you |I hate to be the one
 to | tell you, you're not worth
 all this | I hate to be the one to | break it to you |
OUTRO PART II: (all instrumental)
OUTRO PART III: |        |        | I'd put it down on paper, but I don't
 really care | coz you're not worth my precious time, and I won't waste 
 it here |
                                 END

Low Altitude Sickness is: Bass - Morgan
                          Guitar - Henry
                          Drums - Charles


************************************

| v   pick downwards }for awkward picking patterns
| ^   pick upwards   }
| /   slide up
| \   slide down
| h   hammer-on
| p   pull-off
| ~   vibrato
| +   harmonic
| x   Mute note
| b   Bend
| pb  Pre-bend
| br  Bend release
| pbr Pre-bend release
| brb Bend release bend

************************************
Tap to rate this tab
# A B C D E F G H I J K L M N O P Q R S T U V W X Y Z