Song name
# A B C D E F G H I J K L M N O P Q R S T U V W X Y Z

Misc Unsigned Bands - Black Randy And The Metrosquad - I Slept In An Arcade chords

Highlighted       Show chord diagrams
dangerhouse punk 1979 chords A C E C

       "I SLEPT IN AN ARCADE" by Black Randy & The Metrosquad
 
|---------------------|---------------------|
|---------------------|---------------------|
|----------9----------|----------9----------|
|--7--10---9--10-10---|--7--10---9--10-10---|
|--7--10---7--10-10---|--7--10---7--10-10---|
|--5--8-------8--8----|--5--8-------8--8----|

|---------------------|---------------------|
|---------------------|---------------------|
|----------9----------|----------9----------|
|--7--10---9--10-10---|--7--10---9--10-10---|
|--7--10---7--10-10---|--7--10---7--10-10---|
|--5--8-------8--8----|--5--8-------8--8----|

      A       C             E        C         A     C  E   C
The floor was slimy and the air was thick and hot

   A  C    E                     C        A      C  E  C
I hid in a booth and I tried to set up a cot

   A          C     E           C   A     C  E  C
Some of the movies didn't make any sense

          A        C            E       C  A     C  E  C
But you sure can have a lot of fun for 25 cents


A       G        A
i slept in an arcade

A       G        A
i slept in an arcade

A       G        A
i slept in an arcade

A       G        A
i slept in an arcade

heres the guitar part that plays under the solo
|------------------|--------------------|------------------|----------------------|
|------------------|--------------------|------------------|----------------------|
|------------------|--------------------|------------------|----------------------|
|------------------|--------------------|------------------|----------------------|
|---4-5-6-7-6-5-4--|-7--10-10-10-10-10--|---4-5-6-7-6-5-4--|-7--10-10-10-10-10----|
|-5----------------|-5--8--8--8--8--8---|-5----------------|-5--8--8--8--8--8-----|

and thats all you just repeat the above with the other lyrics which there is a good amount of!
-bert

lyrics:
I saw some geeks and I saw God
Marilyn Chambers and Big Johnny Wadd
Allen MacDonnell was in there with Rod
I bought a vinyl dog and a big rubber cod

I wore fine clothes and drank mixed drinks
I watched the pope fight Leon Spinks
Joe's old nip mama was my maid
Fist Face poured amyl like lemonade

There was a dog in 24B
Working undercover for LAPD
I took his paw and he winked at me
He said I'm man's best friend and I'm off at 3

Dawn came before I got much rest
I stumbled outside and I headed west
I blinked my eyes, I couldn't see
Everybody there looked naked to me
Tap to rate this tab
# A B C D E F G H I J K L M N O P Q R S T U V W X Y Z